» » »

I Will Not Be Fine Tabs (ver.2)

Artists:  A B C D E F G H I J K L M N O P Q R S T U V W X Y Z # 

I Will Not Be Fine Tabs (ver.2)

Justin Taylor
Rating:
5/5 (2 votes)

Hard to play? Try these video lessons and learn fast.
                Justin Taylor - I Will Not Be Fine



INTRO :

Eb---------(12)-------------7----------------------------4----------------0-(12--|
Hb------(12)-------------9--9--9--7-------7--5--0---5------5---------------------|
Gb-----------------------8-----8--8-------6---------4--------4---------6---------|
Db--------------------------------------------------6----------6------6----------|
Ab---------------------7---------7--------7---------7--7-------------------------|
Eb---------------0-------------------------------------------7-----6-------------|


Eb--------------------0--------0--------0------------- 0-------------------|
Hb----------5--------------0---------------------------------0------7------|
Gb-----6----6----6---------1-------8----------1----1h2- -2---2------8------|
Db-----6---------4---------2-------6----------2----2---- 2---0------9------|
Ab---4---------------------2------------------2--------------2------9------|
Eb-------------5----5----0---0----7---7-----0-----0---------------7---7--7-|

VERSE 1 :

Eb---------------------7----------------------------4----------------0-|
Hb------------------9--9--9--7-------7--5--0---5------5--------------0-|
Gb------------------8-----8--8-------6---------4--------4---------6----|
Db---------------------------------------------6----------6------6-----|
Ab----------------7---------7--------7---------7--7--------------------|
Eb----------0-------------------------------------------7-----6--------|


Eb--------------------0--------0--------0------------- 0----------------|
Hb----------5--------------0---------------------------------0------7---|
Gb-----6----6----6---------1-------8----------1----1h2- -2---2------8---|
Db-----6---------4---------2-------6----------2----2---- 2---0------9---|
Ab---4---------------------2------------------2--------------2------9---|
Eb-------------5----5----0---0----7---7-----0-----0---------------7-----|


VERSE 2 :

Eb---------------------7----------------------------4----------------0-|
Hb------------------9--9--9--7-------7--5--0---5------5--------------0-|
Gb------------------8-----8--8-------6---------4--------4---------6----|
Db---------------------------------------------6----------6------6-----|
Ab----------------7---------7--------7---------7--7--------------------|
Eb----------0-------------------------------------------7-----6--------|


Eb--------------------0-----------------------------------------------|
Hb----------5---------------------------------------------------------|
Gb-----6----6----6--------------------------1-------------------------|
Db-----6---------4--------14--------11------2-------------------------|
Ab---4--------------------14--------11------2-------------------------|
Eb-------------5----5-----12---12---9---9---0-0--0--------------------|
            
Hard to play? Try these video lessons and learn fast. | Correct




comments powered by Disqus
↑ Back to top | Tablatures and chords are parodies/interpretations of the original songs. You may use it for private study, scholarship, research or language learning purposes only