» » »

Cheesy Little Love Song Tabs (ver.3)

Artists:  A B C D E F G H I J K L M N O P Q R S T U V W X Y Z # 

Cheesy Little Love Song Tabs (ver.3)

Justin Taylor
Rating:
0/5 (0 votes)

Hard to play? Try these video lessons and learn fast.
                (Intro)
          cheesy little love song            






       E  Q    E  E  E  E   E   
D#||---------------------------|
A#||-----------0--x-----2S--4--|
F#||*----------1--x-----2S--4--|
C#||*----------2--x------------|
G#||---2----------x-----2S--4--|
D#||------0----L--x------------|


  E  E  Q    E  Q    E   
-----0--L----L----------|
--L--L--4----L-------2--|
--L--L--L----4-------2--|
---------------------2--|
--L--L--L----L----------|
----------------2-------|


  E  E  Q.     E  E  E   
------------------------|
--x-----2------2--x-----|
--x-----2------2--x-----|
--x-----2------2--x-----|
--------2------2--x-----|
------------------------|


  E  Q    E  E  E   Q     
-------------------------|
--0-------7--x-----------|
----------8--x-----13----|
----------6--x-----14----|
-----7-------------11----|
-------------------------|


   E   E  E  E  E  Q    E   
---------------------------|
----------------x-------9--|
---L--13--x-----x-------8--|
---L--14--x-----x-------6--|
---L--11--x--------7-------|
---------------------------|


                 NH    NH          
  E  E  E  E     E     E   Q     4x
--------------------<>12---L-----||
--x-----7-----<>12-----L---L-----||
--x-----7-----------------------*||
--x-----7-----------------------*||
---------------------------------||
---------------------------------||




Duration Legend
---------------
W - whole
H - half
Q - quarter
E - 8th
S - 16th
T - 32nd
X - 64th
. - note dotted
|-n-|  - n-tuplets


Tablature Legend
----------------
L - tied note
x - dead note
g - grace note
(n) - ghost note
> - accentuded note
NH - natural harmonic
AH - artificial harmonic
TH - tapped harmonic
SH - semi harmonic
PH - pitch harmonic
h - hammer on
p - pull off
b - bend
br - bendRelease
pb - preBend
pbr - preBendRelease
brb - bendReleaseBend
\n/ - tremolo bar dip
\n - tremolo bar dive
-/n - tremolo bar Release up
/n\ - tremolo bar inverted dip
/n - tremolo bar return
-\n - tremolo bar Release down
S - shift slide
s - legato slide
/ -  slide into from below or out of upwards
\ -  slide into from above or out of downwards
~ - vibrato
W - wide vibrato
tr - trill
TP - tremolo picking
T - tapping
S - slap
P - pop
< - fade in
^ - brush up
v - brush down
            
Hard to play? Try these video lessons and learn fast. | Correct




comments powered by Disqus
↑ Back to top | Tablatures and chords are parodies/interpretations of the original songs. You may use it for private study, scholarship, research or language learning purposes only