» » »

Boyfriend Tabs (ver.1)

Artists:  A B C D E F G H I J K L M N O P Q R S T U V W X Y Z # 

Boyfriend Tabs (ver.1)

Justin Bieber
Rating:
0/5 (0 votes)

Tabs too difficult? Try these video lessons and learn fast.
                Justin Bieber
Capo 1

Verses - No Chords/Tab

Pre-Chorus
       Am            Dm             G            C
e|----------0--|----------1--|----------3--|----------0--|
B|----------1--|----------3--|----------0--|----------1--|  x2
G|------2------|------2------|------0------|------0------|  but last C
D|-------------|--0----------|-------------|-------------|  is just a
A|--0----------|-------------|-------------|--3----------|  normal strum
E|-------------|-------------|--3----------|-------------|

Chorus
     Am       Dm       G        C
e|--0--0--x--|--1--1--x--|--3--3--x--|--0--0--x--|
B|--1--1--x--|--3--3--x--|--0--0--x--|--1--1--x--|
G|--2--2--x--|--2--2--x--|--0--0--x--|--0--0--x--|
D|--2--2--x--|--0--0--x--|--0--0--x--|--2--2--x--|
A|--0--0--x--|--------x--|--2--2--x--|--3--3--x--|
E|--------x--|--------x--|--3--3--x--|--------x--|
            
Tabs too difficult? Try these video lessons and learn fast.


comments powered by Disqus
↑ Back to top | Tablatures and chords are parodies/interpretations of the original songs. You may use it for private study, scholarship, research or language learning purposes only