>
 >
Khudi

Khudi Guitar Tabs

Junoon - Khudi chords, tabs, tablatures, lyrics

Guitar lessons | Add/correct | Request | Top 50 tabs Artists:  A B C D E F G H I J K L M N O P Q R S T U V W X Y Z 0-9

Khudi Guitar Tabs – Junoon

CD, Sheet music, Poster

Do you like Khudi? Share with your friends now
TabsTabs v2
Junoon,Khudi.
  
#This OLGA file is the author's own work and represents their interpretation  #
#research. Remember to view this file in Courier, or some other monospaced    #


Band: Junoon

Hi, I am new to transcription, so forgive me for any errors,
and please feel free to reach me at my above address if you have any comments
or suggestions..

A quick word about this piece...
I havent clearly deciphered all the chords of the rhythm guitar, but
I have written down the stuff here that makes sense and is simple.
It is not hard to figure out the upstrokes and downstrokes on rhythm guitar.
And just out of sheer laziness, I havent added the minute details
like change in the final repeat of the "repeat 4 times" etc..
If you are so keen to read this stuff, I am sure you can figure that out!


Here is some explantion of the notation. 

h  =  hammer on         
p  =  pull off          
/  =  slide up          
\  = slide down         
^  = bend with size of bend notated above
~  =  vibrato

INTRO
-----

Figure-1
--------

      Em                Repeat 4 times
-----7---7-7-7----7--7--7-----------------------
-----8---8-8-8----8--8--8-----------------------
-----9---9-9-9----9--9--9-----------------------
-----9---9-9-9----9--9--9-----------------------
-----7---7-7-7----7--7--7-----------------------
------------------------------------------------
 
Continue Figure-1
----------------
 Khudi ko kar buland ...  
 
 ..teri raza kia he

Figure-2
--------

     Em             Gm          Repeat 4 times
-----7-7-7-7-7------9---9---9---9---9------------
-----8-8-8-8-8------10--10--10--10--10--------------
-----9-9-9-9-9------11--11--11--11--11-------------
-----9-9-9-9-9------11--11--11--11--11-------------
-----7-7-7-7-7------9---9---9---9---9--------------
---------------------------------------------------


Figure -3
---------
   Am
--------0-------------0-------------0-------------0-------
------1---1---------1---1---------1---1---------1---1-----
----2-------2-----2-------2-----2-------2-----2-------2---
----------------------------------------------------------
--0-------------0-------------0-------------0-----------0
----------------------------------------------------------

Continue - Figure -3
--------------------
 Sitaron se age jahan ..

 ... ishq ke Imtehan aur bhi hen
                     aur bhi hen

Figure -1 and continue Fig.1
----------------------------

 Kudi ko kar buland itna ..

 ...  teri raza kia he

Guitar Solo:
-----------
       keep bent
     .............release..     ......release
----------------------------------------------------------------------
---7^8---------8-(7)-5~~------9^10--10-(9)p7---7~~--------------------
---------------------------------------------9------------------------
----------------------------------------------------------------------
----------------------------------------------------------------------
----------------------------------------------------------------------

-------11-12-11--11-12-11-14^15-12-14^15~~~---16^18-14-16^18-14-16^18-
-10-12----------------------------------------------------------------
----------------------------------------------------------------------
----------------------------------------------------------------------
----------------------------------------------------------------------
----------------------------------------------------------------------


----------------------------------------------------------------------
-14-17^19~~~-----5p3---5p3---5p3--3h5p3---5p3----7p5---7p5---7p5-5h7p5
---------------------4-----4------------4-----4------6-----6----------
----------------------------------------------------------------------
----------------------------------------------------------------------
----------------------------------------------------------------------


----------------------------------------------------------------------
---7p5------9p7---9p7---9p7-7h9p7---9p7-7\5-5/9------9-9p7-------
-6-----6--------8-----8----------8-------------11-8-------8~~---
----------------------------------------------------------------------
----------------------------------------------------------------------
----------------------------------------------------------------------


----------------------------------------------------------------------
-9h11------------9-9h11p9----------12h15-------------12-12h15p12------
------11-8--8h11----------11-8-----------14-11-11h14-------------14-11
----------------------------------------------------------------------
----------------------------------------------------------------------
----------------------------------------------------------------------


------------------------------12--12\------------------------------------
-15^17--15^17-15^17~~~-15-12--12--12\------------------------------------
----------------------------------------------------------------------
----------------------------------------------------------------------
----------------------------------------------------------------------
----------------------------------------------------------------------

Figure-3-Continue..
------------------


 Tu shaheen he ...
 ...
 Tu shaheen he tu Shaheen he tu
                     shaheen he

Figure -2 Continue till the end
-------------------------------
 Khudi ko kar blund ....



---------------------
feel free to drop me a line!

Apurva Brahmbhatt 





Comments


Popular Junoon tabs & chords
Jogia Chords
Main Kaun Hoon Chords
Neeind Aati Nahin Chords
Tara Jala Chords
Jugal Bandi Tabs
Papu Yaar Intro 1 Tabs
Piya Tabs
Saeein Tabs
Sanwal Tabs
Neend Aati Nahin Ukulele


Song lyrics



↑ Back to top | Tablatures and chords are parodies/interpretations of the original songs. You may use it for private study, scholarship, research or language learning purposes only
© 2014 AZChords.com Contact us | Privacy policy | DMCA | Add/correct tabs | Request tabs | Top 50 tabs