>
 >
La Camisa Negra Intro

La Camisa Negra Intro Guitar Tabs

Juanes - La Camisa Negra Intro chords, tabs, tablatures, lyrics

Guitar lessons | Add/correct | Request | Top 50 tabs Artists:  A B C D E F G H I J K L M N O P Q R S T U V W X Y Z 0-9

La Camisa Negra Intro Guitar Tabs – Juanes

CD, Sheet music, Poster

Do you like La Camisa Negra Intro? Share with your friends now
TabsTabs v2
Juanes - La Camisa Negra                                 

Rhythm Guitar





      F#m                                                                  
E||-----------------------|-----------------------||----------------------|
B||--------2---------2----|-------2---------2-----||-------2---------2----|
G||*-------2---------2----|-------2---------2----*||-------2---------2----|
D||*-------4---------4----|-------4---------4----*||-------4---------4----|
A||-------------x---------|------------4----------||------------4---------|
E||---2-------------------|--2--------------------||--2-------------------|


  F#m                                           C#7                 
---------------------|-----------------------|---------------------|
---------------------|-----------------------|---------------------|
--2----2----------1/-|--2--2----1/-2----2----|--4----4----------3/-|
--4----4----------3/-|--4--4----3/-4----4----|--6----6----------5/-|
---------------------|-----------------------|---------------------|
---------------------|-----------------------|---------------------|


                          F#m                                         
-----------------------|---------------------|-----------------------|
-----------------------|---------------------|-----------------------|
--4--4----3/-4----4----|--6----6----------5/-|--6--6----5/-6----6----|
--6--6----5/-6----6----|--7----7----------6/-|--7--7----6/-7----7----|
-----------------------|---------------------|-----------------------|
-----------------------|---------------------|-----------------------|


  Bm                     C#7                    F#m                   
----------------------|----------------------|-----------------------|
-----------------7----|--6----6----2----2----|-----------------------|
--7------7--7----7----|--6----4----2----1----|---------2----2-----2--|
--9------9------------|----------------------|--4--------------4-----|
----------------------|----------------------|-----------------------|
----------------------|----------------------|-----------------------|


                                                     
----------------------------|-----------------------|
--2--2---------2--2---------|-----------------------|
-------2----2-------2----2--|---------4----4-----4--|
---------4------------4-----|--6--------------6-----|
----------------------------|-----------------------|
----------------------------|-----------------------|


                               F#m                   
----------------------------|-----------------------|
--3--3---------3--3---------|-----------------------|
-------4----4-------4----4--|---------2----2-----2--|
---------6------------6-----|--4--------------4-----|
----------------------------|-----------------------|
----------------------------|-----------------------|


                               Bm                     C#7                   
----------------------------|----------------------|----------------------||
--2--2---------2--2---------|-----------------7----|--6----6----2----2----||
-------2----2-------2----2--|------------7---------|-------4----2----1----||
---------4------------4-----|--9------9------------|----------------------||
----------------------------|----------------------|----------------------||
----------------------------|----------------------|----------------------||



My girl friend asked me to play this song, and what I've found on the net hasn't
turned out to be close to the original source. This tab shall give a brief insight
into the basic rhythm guitar lick.





Comments


Popular Juanes tabs & chords
Fijate Bien Chords
La Paga Chords
FotografíA Tabs
Fotografia 1 Tabs
Luna (Intro) Tabs
Sonador Intro Tabs
Vulnerable Tabs
Yerbatero Intro Tabs
Adios Le Pido Ukulele
Desde Que Despierto Ukulele


Song lyrics



↑ Back to top | Tablatures and chords are parodies/interpretations of the original songs. You may use it for private study, scholarship, research or language learning purposes only
© 2014 AZChords.com Contact us | Privacy policy | DMCA | Add/correct tabs | Request tabs | Top 50 tabs