» » »

Joy Division, Transmission Tabs (ver.1)

Artists:  A B C D E F G H I J K L M N O P Q R S T U V W X Y Z # 

Transmission Tabs (ver.1)

Joy Division Tabs
 Rating:
4/5 (4 votes)
Transmission lessons Tabs too difficult? Try these video lessons and learn fast
                writes:

i am looking for the lyrics for Transmission by Joy Division. It is on
there
substance CD and the peel sessions thanks in advance for any help

You mean THEIR Substance CD, not THERE. Anyway, here 'tis.


------------
bass:
d-0-0-0-0-0-0-0-0-0-0-0-0-0-0-0------------------------------------
a--------------------------------0-3-3-3-3-3-3-3-3-3-3-3-3-3-3-3-0-
fill
d-0---0----2--
a---3---3-----

Guitar melody
e-----------------------------------------------
b-----------------------------------------------
g-2--4-4--2--2--4-4--2--------------------------
d-----------------------------------------------
a---------------0--2-2--0--0--2-2--0------------
e-----------------------------------------------


guitar solo

e----------------------------
b-6--5--6-5-6-5-6------------
g-----------7--4--7-4-7-4-7--
d----------------------------
a----------------------------
e----------------------------


Radio -- live transmission -- radio
live transmission

Listen to the silence, let it ring on
Eyes dark, relentless, frightened of the sun
We would have a fine time living in the night
Left a blind destruction,
Waiting for our sign

We would go on as though nothing was wrong
Hide from these days to remain all alone
Staying in the same place,
just staring at the tide
Touching from a distance, further all the time

Dance, dance, dance, dance,
dance to the radio (4)

Well I could call out
when the going gets tough
The things we've learned
are no longer enough
No language, just sound
is all we need know
To synchronise love to the beat
of the show
And we could dance -- dance, dance,
dance, dance, to the radio (4)
            
Submit corrections

comments powered by Disqus
↑ Back to top | Joy Division Tabs for Transmission. Lyrics for acoustic guitar and electric guitar. Tablatures and chords are parodies/interpretations of the original songs. You may use it for private study, scholarship, research or language learning purposes only