>
 >
Don't Stop Believin'

Don't Stop Believin' Bass Tabs

Journey - Don't Stop Believin' chords, tabs, tablatures, lyrics

Guitar lessons | Add/correct | Request | Top 50 tabs Artists:  A B C D E F G H I J K L M N O P Q R S T U V W X Y Z 0-9

Don't Stop Believin' Bass Tabs – Journey

CD, Sheet music, Poster

Do you like Don't Stop Believin'? Share with your friends now
Bass TabsDrum TabsTabsTabs v2
                                       DON'T STOP BELIEVIN'
                                      As Recorded by Journey
                                   (From the 1981 album ESCAPE)

Words and Music by Steve Perry, Neal Schon and Jonathan Cain
Arranged by Journey

Moderate Q=120
Recorded by Ross Valory

Intro (Doubled by piano)
   E             B                 C#m7              A2                E
G|-----------------|-----------------|-----------------|-----------------|
D|-----------------|-------------1---|-----------1-2---|-----------1-2---|
A|---------------2-|-----------4---4-|---------------0-|-----------------|
E|-0---------2-4---|-----------------|-----------------|---------------0-|
   1 + 2 + 3 + 4 +   1 + 2 + 3 + 4 +   1 + 2 + 3 + 4 +   1 + 2 + 3 + 4 +

  (E)            B                 G#m               A2       
G|-----------------|-----------------|-----------------|-----------------|
D|-----------------|-------------1---|-----------6-----|-----------1-2---|
A|---------------2-|-----------4-----|---------------0-|-----------------|
E|(0)--------2-4---|---------------4-|-------------4---|-----------------|
   1 + 2 + 3 + 4 +   1 + 2 + 3 + 4 +   1 + 2 + 3 + 4 +   1 + 2 + 3 + 4 +

Verse 1

   E             B                     C#m7          A2
G|-----------------|-----------------|-----------------|-----------------|
D|-----------------|-------------1---|-----------1-2---|-----------1-2---|
A|---------------2-|-----------4-----|-4-------------0-|-----------------|
E|-0-----------4---|-----------------|-----------------|-----------------|
   1 + 2 + 3 + 4 +   1 + 2 + 3 + 4 +   1 + 2 + 3 + 4 +   1 + 2 + 3 + 4 +

   E             B                    G#m            A2 
G|-----------------|-----------------|-----------------|-----------------|
D|-----------------|-------------1---|-----------6-----|-----------1-2---|
A|---------------2-|-----------4-----|---------------0-|-----------------|
E|-0-----------4---|-----------------|-4-----------4---|-----------------|
   1 + 2 + 3 + 4 +   1 + 2 + 3 + 4 +   1 + 2 + 3 + 4 +   1 + 2 + 3 + 4 +

   E             B                     C#m7          A2
G|-----------------|-----------------|-----------------|-----------------|
D|-----------------|-------------1---|-----------1-2---|-----------1-2---|
A|---------------2-|-----------4-----|-4-------------0-|-----------------|
E|-0-----------4---|-----------------|-----------------|-----------------|
   1 + 2 + 3 + 4 +   1 + 2 + 3 + 4 +   1 + 2 + 3 + 4 +   1 + 2 + 3 + 4 +

   E             B                     G#m           A2                E
G|-----------------|-----------------|-----------------|-----------------|
D|-----------------|-------------1---|-----------6-----|-----------1-2---|
A|---------------2-|-----------4-----|---------------0-|-----------------|
E|-0-----------4---|-----------------|-4-----------4---|---------------0-|
   1 + 2 + 3 + 4 +   1 + 2 + 3 + 4 +   1 + 2 + 3 + 4 +   1 + 2 + 3 + 4 +

Instrumental

  (E)            B                 C#m7              A2                E
G|-----------------|-----------------|-----------------|-----------------|
D|-----------------|-------------1---|-----------1-2---|-----------1-2---|
A|---------------2-|---------2-4---4-|---------------0-|-----0-----------|
E|(0)------0-2-4---|-----------------|-----------------|---------------0-|
   1 + 2 + 3 + 4 +   1 + 2 + 3 + 4 +   1 + 2 + 3 + 4 +   1 + 2 + 3 + 4 +

  (E)            B                 G#m               A2              E           
G|-----------------|-----------------|-----------------|-----------------|
D|-----------------|-------------1---|-----------6-----|-----------------|
A|---------------2-|---2-----2-4-----|---------------0-|---0-0-----------|
E|(0)------0-2-4---|---------------4-|----4--------4---|-------------0-0-|
   1 + 2 + 3 + 4 +   1 + 2 + 3 + 4 +   1 + 2 + 3 + 4 +   1 + 2 + 3 + 4 +

Verse 2 (Half-length)

  (E)            B                     C#m7          A2              
G|-----------------|-----------------|-----------------|-----------------|
D|-----------------|-------------1---|-----------1-2---|-----------1-2---|
A|---------------2-|-----------4-----|-4-------------0-|-----------------|
E|(0)----------4---|-----------------|-----------------|-----------------|
   1 + 2 + 3 + 4 +   1 + 2 + 3 + 4 +   1 + 2 + 3 + 4 +   1 + 2 + 3 + 4 +

   E             B                     G#m           A2
G|-----------------|-----------------|-----------------|-----------------|
D|-----------------|-------------1---|-----------------|-----------------|
A|---------------2-|-----------4-----|-----------------|-0-0-0-0-0-0-0---|
E|-0-----------4---|-----------------|-4---4-4-4-4-4-4-|-----------------|
   1 + 2 + 3 + 4 +   1 + 2 + 3 + 4 +   1 + 2 + 3 + 4 +   1 + 2 + 3 + 4 +

Prechorus

   A                                   E
G|-----------------|-----------------|-----------------|-----------------|
D|-----------------|-----4--/6-4-----|-----------------|---2-1---2---1-2-|
A|-0-0-0-0-0-0-0-0-|-0-0---0-----6-4-|-----------------|-----------------|
E|-----------------|-----------------|-0-0-0-0-0-0-0-0-|-0-----0---0-----|
   1 + 2 + 3 + 4 +   1 + 2 + 3 + 4 +   1 + 2 + 3 + 4 +   1 + 2 + 3 + 4 +  

   A                                   E
G|-----------------|-----------------|-----------------|-----------------|
D|-----------------|-----4--/6-4-----|-----------------|---2-1---2---1-2-|
A|-0-0-0-0-0-0-0-0-|-0-0---0-----6-4-|-----------------|-----------------|
E|-----------------|-----------------|-0-0-0-0-0-0-0-0-|-0-----0---0-----|
   1 + 2 + 3 + 4 +   1 + 2 + 3 + 4 +   1 + 2 + 3 + 4 +   1 + 2 + 3 + 4 +  

   A                                   E
G|-----------------|---2-1---2---1-2-|-----------------|-----------------|
D|-----------------|-----------------|-----------------|---2-1---2---1-2-|
A|-0-0-0-0-0-0-0-0-|-0-----0---0-----|-----------------|-----------------|
E|-----------------|-----------------|-0-0-0-0-0-0-0-0-|-0-----0---0-----|
   1 + 2 + 3 + 4 +   1 + 2 + 3 + 4 +   1 + 2 + 3 + 4 +   1 + 2 + 3 + 4 +  

   A                                   B     E          B    E A       E
G|-----------------|-----------------|-----------------|-----------------|
D|-----------------|-----4--/6-4-----|-----------------|-----------------|
A|-0-0-0-0-0-0-0-0-|-0-0---0-----6-4-|-2---------------|-2-----0---0-----|
E|-----------------|-----------------|-------0---------|-----0---------0-|
   1 + 2 + 3 + 4 +   1 + 2 + 3 + 4 +   1 + 2 + 3 + 4 +   1 + 2 + 3 + 4 +  

Verse 3

  (E)            B                 C#m7              A2                E
G|-----------------|-----------------|-----------------|-----------------|
D|-----------------|-------------1---|-----------1-2---|-----------1-2---|
A|---------------2-|---2-2-2-2-4---4-|-----4---4-----0-|-----0---0-------|
E|-----0---0-2-4---|-----------------|-----------------|---------------0-|
   1 + 2 + 3 + 4 +   1 + 2 + 3 + 4 +   1 + 2 + 3 + 4 +   1 + 2 + 3 + 4 +

  (E)            B                 C#m7              A2                E
G|-----------------|-----------------|-----------------|-----------------|
D|-----------------|-------------1---|-----------1-2---|-----------1-2---|
A|---------------2-|---2-2-2-2-4---4-|-----4---4-----0-|-----0---0-------|
E|-----0---0-2-4---|-----------------|-----------------|---------------0-|
   1 + 2 + 3 + 4 +   1 + 2 + 3 + 4 +   1 + 2 + 3 + 4 +   1 + 2 + 3 + 4 +  

  (E)            B                 G#m               A2                E
G|-----------------|-----------------|-----------------|-----------------|
D|-----------------|-------------1---|-----------6-----|-----------1-2---|
A|---------------2-|---2-2---2-4-----|---------------0-|---0-0-0-0-------|
E|-----0---0-2-4---|---------------4-|---4-4---4---4---|---------------0-|
   1 + 2 + 3 + 4 +   1 + 2 + 3 + 4 +   1 + 2 + 3 + 4 +   1 + 2 + 3 + 4 +

  (E)            B                 C#m7              A2                E
G|-----------------|-----------------|-----------------|-----------------|
D|-----------------|-------------1---|-----------1-2---|-----------1-2---|
A|---------------2-|---2-2-2-2-4---4-|-----4---4-----0-|-----0---0-------|
E|-----0---0-2-4---|-----------------|-----------------|---------------0-|
   1 + 2 + 3 + 4 +   1 + 2 + 3 + 4 +   1 + 2 + 3 + 4 +   1 + 2 + 3 + 4 +  

  (E)            B                 G#m               A2                E
G|-----------------|-----------------|-----------------|-----------------|
D|-----------------|-------------1---|-----------6-----|-----------------|
A|---------------2-|---2-2---2-4-----|---------------0-|---0-0-0-0-0-0-0-|
E|-----0---0-2-4---|---------------4-|---4-4---4---4---|-----------------|
   1 + 2 + 3 + 4 +   1 + 2 + 3 + 4 +   1 + 2 + 3 + 4 +   1 + 2 + 3 + 4 +

Prechorus

   A                                   E                               A
G|-----------------|-----------------|-----------------|-----------------|
D|-----------------|-----4--/6-4-----|-----------------|---2-1---2---1-2-|
A|-0-0-0-0-0-0-0-0-|-0-0---0-----6-4-|-----------------|-----------------|
E|-----------------|-----------------|-0-0-0-0-0-0-0-0-|-0-----0---0-----|
   1 + 2 + 3 + 4 +   1 + 2 + 3 + 4 +   1 + 2 + 3 + 4 +   1 + 2 + 3 + 4 +  

  (A)                                  E                               A
G|-----------------|-----------------|-----------------|-----------------|
D|-----------------|-----4--/6-4-----|-----------------|---2-1---2---1-2-|
A|-0-0-0-0-0-0-0-0-|-0-0---0-----6-4-|-----------------|-----------------|
E|-----------------|-----------------|-0-0-0-0-0-0-0-0-|-0-----0---0-----|
   1 + 2 + 3 + 4 +   1 + 2 + 3 + 4 +   1 + 2 + 3 + 4 +   1 + 2 + 3 + 4 +  

  (A)                                  E                               A
G|-----------------|---2-1---2---1-2-|-----------------|-----------------|
D|-----------------|-----------------|-----------------|---2-1---2---1-2-|
A|-0-0-0-0-0-0-0-0-|-0-----0---0-----|-----------------|-----------------|
E|-----------------|-----------------|-0-0-0-0-0-0-0-0-|-0-----0---0-----|
   1 + 2 + 3 + 4 +   1 + 2 + 3 + 4 +   1 + 2 + 3 + 4 +   1 + 2 + 3 + 4 +  

  (A)                                  B     E           B   E A       E
G|-----------------|-----------------|-----------------|-----------------|
D|-----------------|-----4--/6-4-----|-----------------|-----------------|
A|-0-0-0-0-0-0-0-0-|-0-0---0-----6-4-|-2---------------|-2-----0---0-----|
E|-----------------|-----------------|-------0---------|-----0---------0-|
   1 + 2 + 3 + 4 +   1 + 2 + 3 + 4 +   1 + 2 + 3 + 4 +   1 + 2 + 3 + 4 +  

Solo

  (E)            B                 C#m7              A2                E
G|-----------------|-----------------|-----------------|-----------------|
D|-----------------|-------------1---|-----------1-2---|-----------1-2---|
A|---------------2-|---2-2-2-2-4---4-|-----4---4-----0-|-----0---0-------|
E|-----0---0-2-4---|-----------------|-----------------|---------------0-|
   1 + 2 + 3 + 4 +   1 + 2 + 3 + 4 +   1 + 2 + 3 + 4 +   1 + 2 + 3 + 4 +  

  (E)            B                 G#m               A2                E
G|-----------------|-----------------|-----------------|-----------------|
D|-----------------|-------------1---|-----------6-----|-----------1-2---|
A|---------------2-|---2-2---2-4-----|---------------0-|---0-0-0-0-------|
E|-----0---0-2-4---|---------------4-|---4-4-4-4---4---|---------------0-|
   1 + 2 + 3 + 4 +   1 + 2 + 3 + 4 +   1 + 2 + 3 + 4 +   1 + 2 + 3 + 4 +

Chorus

  (E)            B                 C#m7              A2                E
G|-----------------|-----------------|-----------------|-----------------|
D|-----------------|-------------1---|-----------1-2---|-----------1-2---|
A|---------------2-|---2-2-2-2-4---4-|-----4---4-----0-|-----0---0-------|
E|-----0---0-2-4---|-----------------|-----------------|---------------0-|
   1 + 2 + 3 + 4 +   1 + 2 + 3 + 4 +   1 + 2 + 3 + 4 +   1 + 2 + 3 + 4 +  

  (E)            B                 G#m               A2                E
G|-----------------|-----------------|-----------------|-----------------|
D|-----------------|-------------1---|-----------6-----|-----------1-2---|
A|---------------2-|---2-2---2-4-----|---------------0-|---0-0-0-0-------|
E|-----0---0-2-4---|---------------4-|---4-4-4-4---4---|---------------0-|
   1 + 2 + 3 + 4 +   1 + 2 + 3 + 4 +   1 + 2 + 3 + 4 +   1 + 2 + 3 + 4 +

  (E)            B                 C#m7              A2                E
G|-----------------|-----------------|-----------------|-----------------|
D|-----------------|-------------1---|-----------1-2---|-----------1-2---|
A|---------------2-|---2-2-2-2-4---4-|-----4---4-----0-|-----0---0-------|
E|-----0---0-2-4---|-----------------|-----------------|---------------0-|
   1 + 2 + 3 + 4 +   1 + 2 + 3 + 4 +   1 + 2 + 3 + 4 +   1 + 2 + 3 + 4 +  

  (E)            B                 G#m               A2                E
G|-----------------|-----------------|-----------------|---2-----2-------|
D|-----------------|-------------1---|-----6---6-------|-----------1-2---|
A|---------------2-|---2-2---2-4-----|---------------0-|-----0-0---------|
E|-----0---0-2-4---|---------------4-|---4---4---4-4---|---------------0-|
   1 + 2 + 3 + 4 +   1 + 2 + 3 + 4 +   1 + 2 + 3 + 4 +   1 + 2 + 3 + 4 +

  (E)            B                 C#m7              A2                E
G|-----------------|-----------------|-----------------|-----------------|
D|-----------------|-------------1---|-----------1-2---|-----------1-2---|
A|---------------2-|---2-2-2-2-4---4-|-----4---4-----0-|-----0---0-------|
E|-----0---0-2-4---|-----------------|-----------------|---------------0-|
   1 + 2 + 3 + 4 +   1 + 2 + 3 + 4 +   1 + 2 + 3 + 4 +   1 + 2 + 3 + 4 +  

  (E)            B                 G#m               A2                E
G|-----------------|-----------------|-----------------|-----------------|
D|-----------------|-------------1---|-----------6-----|-----------1-2---|
A|---------------2-|---2-2---2-4-----|---------------0-|---0-0-0-0-------|
E|-----0---0-2-4---|---------------4-|---4-4-4-4---4---|---------------0-|
   1 + 2 + 3 + 4 +   1 + 2 + 3 + 4 +   1 + 2 + 3 + 4 +   1 + 2 + 3 + 4 +

  (E)
G|-----------------|
D|-----------------|
A|-----------------|
E|-0---x-----------|
   1 + 2 + 3 + 4 +

Legend
(x) - rung over from last phrase/measure
/x - slide from last note played on that string to one indicated
x -  mute note on beat indicated





Comments


Popular Journey tabs & chords
Only The Young Bass Tabs
Patiently Bass Tabs
Dont Stop Believing 10 Chords
Dont Stop Believing 2 Chords
Faithfully 8 Chords
Only The Young 1 Chords
Separate Ways (Worlds Apart) Chords
After All These Years Intro 1 Tabs
Dont Stop Believing 8 Tabs
Send Her My Love Tabs


Song lyrics



↑ Back to top | Tablatures and chords are parodies/interpretations of the original songs. You may use it for private study, scholarship, research or language learning purposes only
© 2014 AZChords.com Contact us | Privacy policy | DMCA | Add/correct tabs | Request tabs | Top 50 tabs