» » »

You Are The Dark Tabs (ver.1)

Artists:  A B C D E F G H I J K L M N O P Q R S T U V W X Y Z # 

You Are The Dark Tabs (ver.1)

Joseph Arthur
Rating:
5/5 (2 votes)

Hard to play? Try these video lessons and learn fast.
                This is my first crack at making a tab for a song. I couldn't find anything, so I just 

Cheers!

Tuning: Standard
Capo: 6th Fret

Chords G Cadd9 Am

Intro: G

E---3---3*-------3--3*----|   *I'm not sure if he plays this, but I add it so
A-------------------------|    that it has a fuller sound. It's up to you...
D-----0-----0-----0----0--|
B-------------0----------0|   x4
G-------3-----------0-----|
E-------------------------|


VERSE 1: G

E---3---3*-------3--3------|
A--------------------------|
D-----0-----0-----0----0---|
B-------------0----------0-|  x4
G-------3-----------0------|
E--------------------------|

    I'm up all   night


    Cadd9
E--------------------------|
A---3---3-------3---3------|
D-----0----0-----0-----0---|
B------------0-----------0-|   x2
G-------3-----------0------|
E--------------------------|

   Let me feel............. Anything at


  G
E---3---3*-------3--3------|
A--------------------------|
D-----0-----0-----0----0---|
B-------------0----------0-|  x2
G-------3-----------0------|
E--------------------------|

   All....


  Am
E---------------------------|
A---0---0--------0----------|
D-----2-----2------2---2----|
B-------------2----------2--|   x2
G-------2------------0------|
E---------------------------|

   And babe, you were the the


  G
E---3---3*-------3--3------|
A--------------------------|
D-----0-----0-----0----0---|
B-------------0----------0-|  x4
G-------3-----------0------|
E--------------------------|

    light


  Am
E---------------------------|
A---0---0--------0----------|
D-----2-----2------2---2----|
B-------------2----------2--|   x2
G-------2------------0------|
E---------------------------|

   And now, you are the


  G
E---3---3*-------3--3------|
A--------------------------|
D-----0-----0-----0----0---|
B-------------0----------0-|  x4
G-------3-----------0------|
E--------------------------|

    dark...

Repeat and enjoy!
            
Hard to play? Try these video lessons and learn fast. | Correct




comments powered by Disqus
↑ Back to top | Tablatures and chords are parodies/interpretations of the original songs. You may use it for private study, scholarship, research or language learning purposes only