» » »

Joseph Arthur, Tiny Echoes Tabs (ver.1)

Artists:  A B C D E F G H I J K L M N O P Q R S T U V W X Y Z # 

Tiny Echoes Tabs (ver.1)

Joseph Arthur Tabs
Rating:
0/5 (0 votes)
Tiny Echoes lessons Tabs too difficult? Try these video lessons and learn fast
                -------------------------------------------------------------------------------
-------------------------------------------------------------------------------

Tuning: Standard

Yet another beautiful song by Joseph Arthur. Its relatively simple to play and sounds just like it.
Enjoy!!

-------------------0-------------------------------------------------------------|
-----------1-------------------1-------------------------------------------------|
-----------0-------------------2-------0-----------0-----------------2-----------|
-----0h2--------------------2----------------------2--------0--------3------3----|
--3------------3--------0-----------0-----------2-----------------3--------------|
--------------------------------------------0------------0-----1---------1-------|

               Sometimes i feel like giving up

--------------------------------------------------------------------------------|
--------------------------------------------------------------------------------|
--------0---------------2---------------0---------------------------------------|
--------2------0--------3-----3---------0----0---------0------0-----------------|
-----2---------------3-------------0h2------------0h2---------------------------|
--0---------0-----1---------1----3---------3----3---------3---------------------|

        Giving in                  to the dark

Bridge
-------------------------------------------0-------------------------------------|
------------------------------------1---------------1----------------------------|
--------2---------------0-----------2--------------------0-----------------------|
--------3----0----------0----0----2-------------0h2------------------------------|
-----3-------------0h2----------0-------0-----3--------0-------------------------|
--1--------0----3----------3-----------------------------------------------------|


-------0------------0-------------0h2-------------------0h2----------------------|
------------1-------3----3----------------3----------3-------3-------------------|
----2------------0------------2-----------------0h2------------------------------|
--3-------3----2-------2----0----------0-----0-----------------------------------|
---------------------------------------------------------------------------------|
---------------------------------------------------------------------------------|


| /  slide up
| \  slide down
| h  hammer-on
| p  pull-off
| ~  vibrato
| +  harmonic
| x  Mute note
===============================================================================
            
Submit corrections

comments powered by Disqus
↑ Back to top | Joseph Arthur Tabs for Tiny Echoes. Lyrics for acoustic guitar and electric guitar. Tablatures and chords are parodies/interpretations of the original songs. You may use it for private study, scholarship, research or language learning purposes only