» » »

Joseph Arthur, Horses Tabs (ver.1)

Artists:  A B C D E F G H I J K L M N O P Q R S T U V W X Y Z # 

Horses Tabs (ver.1)

Joseph Arthur Tabs
 Rating:
4/5 (4 votes)
Horses lessons Tabs too difficult? Try these video lessons and learn fast
                Horses chords&tab
Artist - Joseph Arthur
Album : The Graduation cerimony

Cape on the 7th

INTRO (x2) and VERSE
e-----------------------------------------------------------------------|
B-----3----------3----------3-----------1---0------------0--------------|
G-----0----------0----------0-----------2----------0---------0----------|
D---0---0------0----0-----2-----2-----0--------------0p2-------0p2--(0)-|
A------------2-----2-----3-----3----0-----0------2---------2------------|
E-3----3----------------------------------------------------------------|
  G          E7-         C9         D7           E-

PRECHORUS
e-------------------------------------|
B-----1--------1---------1-------1----|
G-------2---------2------0-------2----|
D---2--------2---------2---2---0---0--|
A-0----0---0-----0---3--------0-------|
E-------------------------------------|
  A-                 C        D7      G(INTRO)

CHORUS
e------0---------  ------------|
B---0p1-----0p1--  -------0----|
G--------------2-  --0-------0-|
D--2------2------  ----0p2-----|
A-0------0-------  -2-------2--|
E----------------  ------------|
  A-            x2  E-        x2


VERSE 1
G        E7-           C9
I don't wanna hold you hostage
        D7        E-
I wanna set you free
G          E7-          C9
If I could I'd pay your ransom
              D7       E-
And give your eyes to see
G            E7-           C9
You know my love, it will follow
       D7          E-
If you only follow me
A-              C         D7   G
Your eyes will open up so easily

VERSE 2
I don't wanna make you suffer
Or fill you up with shame
What I want is to protect you
Give you shelter from the rain
If you take my hand and maybe
Even take my name
We won't have anyone else left to blame

CHORUS
A-                  E-
See how the horses run
            A-
Round the track
                 E-
Until the winner come
                         A-
Wait for the sound of his gun
                   E-
And then the horses run (INTRO)

VERSE 3
I guess I was only dreaming
I'm here all on my own
I remember how you left me
Homeless in my home
But you said I had it coming
'Cause I've always done you wrong
But I was finding out where I belong

CHORUS 2
See how the horses run
Round the track
Until the winner come
Wait for the sound of his gun
And then the horses run

CHORUS 3
See how the horses run
Round the track
Until the winner come
Wait for the sound of his gun
And then the horses run
            
Submit corrections

comments powered by Disqus
↑ Back to top | Joseph Arthur Tabs for Horses. Lyrics for acoustic guitar and electric guitar. Tablatures and chords are parodies/interpretations of the original songs. You may use it for private study, scholarship, research or language learning purposes only