» » »

Joseph Arthur, Almost Blue Chords (ver.1)

Artists:  A B C D E F G H I J K L M N O P Q R S T U V W X Y Z # 

Almost Blue Chords (ver.1)

Joseph Arthur Tabs
Rating:
4/5 (1 vote)
Almost Blue lessons Tabs too difficult? Try these video lessons and learn fast
                Tuning: EADGBe 

Another new one, made by a live version, as usual he uses a lot of hammer on's 
during the song, check it live: 


Capo 3rd Fret, Chords required:

Em7   (022030)
D     (xx0232)
Cadd9 (x32030) 
Am    (x02210)
C     (x32010)
G     (32003x)
Em    (022000)


Verse strumming suggestion (all down strum): 
   
    Em7       D        Cadd9
e|------------2--2--0-----------------------|
B|---------3--3--3--3--3--3--3--3--3--3-----|
G|---------0--2--2--0--0--0--0--0--0--0-----|
D|--2---2--2--0--0--0--2--2--0--2--0--2-----|
A|--2---2--2-----------3--3--3--3--3--3-----|
E|--0---0-----------------------------------|

    Am        C        G
e|------------------------------------------|
B|--1---1--1--1--1--1--3--3--3--3--3--3-----|
G|--2---2--0--0--0--0--0--0--0--0--0--0-----|
D|--2---2--2--2--2--2--0--0--0--0--0--0-----|
A|--0---0--0--3--3--3--2--2--0--2--0--2-----|
E|---------------------3--3--3--3--3--3-----|


Chorus/Bridge strumming: D DU UDU 2x each chord 


Verse:

Em7    D     Cadd9
Playing with your toy soldiers
Em7     D     Cadd9
You don't know what they're for
Em7     D     Cadd9
So you just make lots of noises
Am      C     G
Decide who wins the war

...


Chorus:

D       C
In your hideaway
G         Em
Almost new, almost blue


Bridge:

Am       
And you're never going back to them
C
No, you're never going back to them
G             Em
Till you're blue
            
Submit corrections

comments powered by Disqus
↑ Back to top | Joseph Arthur Chords for Almost Blue. Lyrics for acoustic guitar and electric guitar. Tablatures and chords are parodies/interpretations of the original songs. You may use it for private study, scholarship, research or language learning purposes only