» » »

Matchbox Bass tabs (ver.1)

Artists:  A B C D E F G H I J K L M N O P Q R S T U V W X Y Z # 

Matchbox Bass tabs (ver.1)

Jonny Lang
Rating:
0/5 (0 votes)

Hard to play? Try these video lessons and learn fast.
                matchbox
jonny lang


G---------------------------------------------------9-10-9------------|
D-----------9-10-9--------------9-10-9---------9-12--------12-9-------|
A------9-12--------12-9----9-12-------12-9-10-------------------------|
E---10------------------10--------------------------------------------|


G------------------------------------11---------9-----|
D-----------9-10-9-------------11-14-------9-12-------|
A------9-12--------12-9--10/12----------10------------|
E---10------------------------------------------------|


UNTIL THE END OF THE SONG
            
Hard to play? Try these video lessons and learn fast. | Correct




comments powered by Disqus
↑ Back to top | Tablatures and chords are parodies/interpretations of the original songs. You may use it for private study, scholarship, research or language learning purposes only