» » »

Jonas Brothers, Love Bug Tabs (ver.3)

Artists:  A B C D E F G H I J K L M N O P Q R S T U V W X Y Z # 

Love Bug Tabs (ver.3)

Jonas Brothers Tabs
 Rating:
4/5 (4 votes)
Love Bug lessons Tabs too difficult? Try these video lessons and learn fast
                 -------------------------------------------------------------------------------
			     	Love Bug - Jonas Brothers
-------------------------------------------------------------------------------

Tuning: Standard

	This is my favorite song off their new album!
	In concert, Nick plays Guitar 1, John Taylor plays Guitar 2,
	and Kevin plays mandolin and Guitar 3.
	I saw Nick play Guitar 2 differently in an acoustic performance so  mabye i'll make an 
tab.
	Have fun!
	(I'm also working on the bass and mandolin tabs do message
	me if you want those!)

	*UPDATE!*
	I fixed and added alot of things, and changed the format to make it easier to read. 
you like it!

	Intro
-Gtr. 1
e|-------------------------|----|--------------------|
B|-------------------------|----|--------------------|
G|----8-8---6-6---9-9-9-9--|----|----8-8---6-6---9~--|
D|----9-9---7-7---9-9-9-9--|-x5-|----9-9---7-7---9~--|
A|---------------7-7-7-7---|----|----------------7~--|
E|---7-7---5-5-------------|----|---7-7---5-5--------|

	Chorus
-Gtr. 1
e|-------------------------------------------|
B|-------------------------------------------|
G|----9-9-9-9---9-9-9-9---6-6-6-6---9-9-9-9--|
D|----9-9-9-9---9-9-9-9---7-7-7-7---9-9-9-9--| x2
A|---7-7-7-7---6-6-6-6-------------7-7-7-7---|
E|-----------------------5-5-5-5-------------|

	Post-Chorus
-Gtr. 1
e|---------------------------|
B|---------------------------|
G|----8-8---6-6---9-9---9-9--|
D|----9-9---7-7---9-9---9-9--| x2
A|---------------7-7---7-7---|
E|---7-7---5-5---------------|

-Gtr. 2
e|--------------------------------------------------------------------------------|
B|--------------------------14\----------------------------------------------17\--|
G|---8-9-9-9-8-6-4~--11-13-------8-9-9-9-8-6-4~--15h16-16-16-16--15h16-16-16-16\--|
D|--------------------------------------------------------------------------------|
A|--------------------------------------------------------------------------------|
E|--------------------------------------------------------------------------------|

	Verse
-Gtr. 1
e|-------------------------|
B|-------------------------|
G|----8-8---6-6---9-9-9-9--|
D|----9-9---7-7---9-9-9-9--| x4
A|---------------7-7-7-7---|
E|---7-7---5-5-------------|

-Gtr. 2
e|---7-7--7---7-7--7---|
B|---9-9--9---9-9--9---|                                      9
G|---9-9--9---9-9--9---|    (play this when Gtr. 1 is playing 9)
D|---------------------| x4                                   7
A|---------------------|
E|---------------------|

	Chorus
-Gtr. 1
e|-------------------------------------------|
B|-------------------------------------------|
G|----9-9-9-9---9-9-9-9---6-6-6-6---9-9-9-9--|
D|----9-9-9-9---9-9-9-9---7-7-7-7---9-9-9-9--| x2
A|---7-7-7-7---6-6-6-6-------------7-7-7-7---|
E|-----------------------5-5-5-5-------------|

-Gtr. 2
Chorus
e|--------------------------------|
B|--------------------------------|
G|---13-16-13h16---13-16--13-16---|
D|--------------------------------| x8
A|--------------------------------|
E|--------------------------------|

	Verse
-Gtr. 1
e|-----------------|
B|-----------------|
G|---8~---6~---9~--|
D|---9~---7~---9~--| x4
A|---9~---7~---7~--|
E|---7~---5~-------|

-Gtr. 2
e|---------------|    |---------------|
B|---------------|    |---(3rd-time)--|
G|---------------|    |---------------|
D|---------------| x4 |---------------|
A|---9~-7~-11~---|    |---11h12-11~---|
E|---------------|    |---------------|

	Interlude
-All
e|-----------------|
B|-----------------|
G|---9\------------|
D|---9\---or---2~--|
A|---7\--------2~--|
E|-------------0~--|

	Bridge
-Gtr. 1
e|--------------------------------------------------------------------------------|
B|------------------10-12-10-9--------------------10-12-10-9----------------------|
G|---11^-11^~---11^------------9---11^-11^~---11^------------9---11^-11^`--9------|
D|----------------------------------------------------------------------------11--|
A|---(^ = bend)--------------------------------------------------(` = bend back)--|
E|--------------------------------------------------------------------------------|

e|--------------------------|
B|--------------------------|
G|----------9^-9^`-9--------|
D|---9-9h11----------10-9~--| x2
A|--------------------------|
E|--------------------------|

-Gtr. 2
e|---------------------12------------------------------12-------------------------|
B|------------------14----14-12---------------------14----14-12-------------------|
G|---14^-14^~---14^-------------14---14^-14^~---14^-------------14---14^-14^--12--|
D|--------------------------------------------------------------------------------|
A|--------------------------------------------------------------------------------|
E|--------------------------------------------------------------------------------|

e|--------------------------------------------|
B|--------------------------------------------|
G|-------------------14--14^-14^-14^-14-13~---|
D|---14--11-11-11h14--------------------------|
A|--------------------------------------------|
E|--------------------------------------------|

-Gtr. 3
e|--------------------------------------------------------------------------|
B|--------------------------------------------------------------------------|
G|---9-9-9-9-9-9-9-9---9-9-9-9-9-9-9-9---6-6-6-6-6-6-6-6---9-9-9-9-9-9-9-9--|
D|---9-9-9-9-9-9-9-9---9-9-9-9-9-9-9-9---7-7-7-7-7-7-7-7---9-9-9-9-9-9-9-9--| x2
A|---7-7-7-7-7-7-7-7---6-6-6-6-6-6-6-6---7-7-7-7-7-7-7-7---7-7-7-7-7-7-7-7--|
E|---------------------------------------5-5-5-5-5-5-5-5--------------------|

	Chorus
-All
e|----------------------------------------------------------|
B|----------------------------------------------------------|
G|---9999999999999999---999999999999999---------------------|
D|---9999999999999999---999999999999999---x-77777777777777--|
A|---7777777777777777---666666666666666---x-77777777777777--|
E|----------------------------------------x-55555555555555--|

-Gtr. 2 & 3
e|----------------------|
B|----------------------|
G|---9999999999999999---|
D|---9999999999999999---|
A|---7777777777777777---|
E|----------------------|

-Gtr. 1
e|-----------------------------------------|
B|-----------------------------------------|
G|-----------------------------------------|
D|---22222222------------------------------|
A|---22222222------------------------------|
E|---00000000---/12-12-12-12-12-12-12-12---|

-All
e|----------------------------------------------------------|
B|----------------------------------------------------------|
G|---9999999999999999---999999999999999---------------------|
D|---9999999999999999---999999999999999---x-77777777777777--|
A|---7777777777777777---666666666666666---x-77777777777777--|
E|----------------------------------------x-55555555555555--|

-Gtr. 1 & 3
e|---------------------------|
B|---------------------------|
G|---------------------------|
D|---44444444---7777---9999--|
A|---44444444---7777---9999--|
E|---22222222---5555---7777--|

-Gtr. 2
e|--------------------------------------|
B|---------------------------17----19\--|
G|-------9-------9-----15h16----16------|
D|---7h9---9-7h9---9--------------------|
A|--------------------------------------|
E|--------------------------------------|


	Outro
-All
e|-----------------|
B|-----------------|
G|---9~------------|
D|---9~---or---2~--|
A|---7~--------2~--|
E|-------------0~--|

| /  slide up
| \  slide down
| h  hammer-on
| p  pull-off
| ~  vibrato
| +  harmonic
| x  Mute note
===============================================================================
            
Submit corrections

comments powered by Disqus
↑ Back to top | Jonas Brothers Tabs for Love Bug. Lyrics for acoustic guitar and electric guitar. Tablatures and chords are parodies/interpretations of the original songs. You may use it for private study, scholarship, research or language learning purposes only