» » »

Join The Club, Lunes Tabs (ver.6)

Artists:  A B C D E F G H I J K L M N O P Q R S T U V W X Y Z # 

Lunes Tabs (ver.6)

Join The Club Tabs
 Rating:
4/5 (5 votes)
Lunes lessons Tabs too difficult? Try these video lessons and learn fast
                -------------------------------------------------------------------------------
                             Lunes- join the club
-------------------------------------------------------------------------------

Tuning:
                 2x mo gawin to
e|--------------------4s6s4---6s8--6s4---------------------------------------|
B|---------------------------------------------------------------------------|
G|-1s3s1--3s5--3s1-----------------------------------------------------------|
D|---------------------------------------------------------------------------|
A|---------------------------------------------------------------------------|
E|---------------------------------------------------------------------------|


e|---------------------3---1-------------------------------------------------|
B|-1-------------1------------1----------------------------------------------|
G|----3--1--3-----------------------333333333------111111--------------------|
D|---------------------------------------------------------------------------|
A|---------------------------------------------------------------------------|
E|---------------------------------------------------------------------------|

adlib to `pre:

e|---------------------------------------------------------------------------|
B|---------------1-------------1--------4-2-1-2-1-----------1----------------|
G|------1---3-------------1-3----------------------3--1--3-----1-------------|
D|-1-3---------------1-3---------1-3-----------------------------------------|
A|---------------------------------------------------------------------------|
E|---------------------------------------------------------------------------|



e|--------4-6---8---------4-6--8-------11--9-8-9-8-6-4-6-4-------------------|
B|--4-6-------------4-6----------4-6-----------------------------------------|
G|---------------------------------------------------------------------------|
D|---------------------------------------------------------------------------|
A|---------------------------------------------------------------------------|
E|---------------------------------------------------------------------------|


e|-9988h9p899-88h9p8---------------------------------------------------------|
B|---------------------------------------------------------------------------|
G|---------------------------------------------------------------------------|
D|---------------------------------------------------------------------------|
A|---------------------------------------------------------------------------|
E|---------------------------------------------------------------------------|
            
Submit corrections

comments powered by Disqus
↑ Back to top | Join The Club Tabs for Lunes. Lyrics for acoustic guitar and electric guitar. Tablatures and chords are parodies/interpretations of the original songs. You may use it for private study, scholarship, research or language learning purposes only