» » »

Lunes Tabs

Artists:  A B C D E F G H I J K L M N O P Q R S T U V W X Y Z # 

Lunes Tabs

(ver. 1)
Join The Club Tabs
 Rating:
3.5/5 (8 votes)
    Lunes lessons Tabs too difficult? Try these video lessons and learn fast
                nga pala e2 ung pnakauna kung gnawang tab kaya try nyo nlang kung sak2 and try to rate nyo naman po.

intro:
guitar1(lead)
e -------------------------------------------------------------|
b -----------------------------11s9-11s13-11-9-11s9-11s13-11-9-|
g -------------------------------------------------------------|
D ---8s6-8s10-8-6-8s6-8s10-8-6---------------------------------|
A -------------------------------------------------------------|
E -------------------------------------------------------------|
guitar2 (bagsak lang)
e -------------------------------------------------------------|
b -------------------------------------------------------------|
g -----------------------------6-------------------------------|
D ---6-------------------------6-------------------------------|
A ---6-------------------------4-------------------------------|
E ---4---------------------------------------------------------|
tapos
guitar1
e -------------------------------------------------------------|
b -------------------------------------------------------------|
g -------------------12-10-------------------12-10-------------|
D -------------------------10----------------------10-8-8-10-6-|
A ---10s11-10-10-11-----------10s11-10-10-11-------------------|
E -------------------------------------------------------------|
guitar2 (timingan nyo nlang sa pag-strum)
e -------------------------------------------------------------|
b -------------------------------------------------------------|
g -------------------8-10-12-----------------8-10-12--5---6----|
D ---3---------------8-10-12--3--------------8-10-12--5---6----|
A ---3---------------6-8--10--3--------------6-8--10--3---4----|
E ---1------------------------1--------------------------------|
stanza:
  unang araw...
e ---------------|
b ---------------|
g ------------6--|   2x
D ---6--------6--|
A ---6--------4--|
E ---4-----------|
pre-cho:
  maari bang magtanong...
e -------------------------------------------------------------|
b -------------------------------------------------------------|
g -------------------8-10-12-----------------8-10-12--5---6----|
D ---3---------------8-10-12--3--------------8-10-12--5---6----|
A ---3---------------6-8--10--3--------------6-8--10--3---4----|
E ---1------------------------1--------------------------------|
cho:
  matatanggap ba ko...
e ----------------------------------|
b ----------------------------------|
g ---------------------6----5-------|
D ---6--------3--------6----5----3--|
A ---6--------3--------4----3----3--|
E ---4--------1------------------1--|
  wala sa hinagap...
e --------------------------------------------|
b --------------------------------------------|
g ---6----5-------------6----5---------66-88--|
D ---6----5----3--------6----5----3----66-88--|
A ---4----3----3--------4----3----3----44-66--|
E -------------1------------------1-----------|
bridge (timingan noy nlang sa palmute)
e ---------------------|
b ---------------------|
g -------------5----6--|
D ---3----6----5----6--|
A ---3----6----3----4--|
E ---1----4------------|
sabay pasok ung lead (guitar1)
e ---------------------------------------------------------|
b ---------------------------------------------------------|
g -----------5-5---------5-5-------8-6-5-6-5-------5-------|  2x
D ---6-6-6-8-----6-6-6-8-----6-6-6-----------8-6-8---6-----|
A ---------------------------------------------------------|
E ---------------------------------------------------------|
sabay to sa ikalawang ikot ng lead (guitar2)
e ------------8-8----------8-8-------11-9-8-9-8---------8---|
b ---9-9-9-11-----9-9-9-11-----9-9-9------------11-9-11---9-|
g ----------------------------------------------------------|
D ----------------------------------------------------------|
A ----------------------------------------------------------|
E ----------------------------------------------------------|
guitar1
e ------------------------------------------|
b ------------------------------------------|
g ----------------8-----------8-----------8-|
D ---6--6-5-5h6-5---6-5-5h6-5---6-5-5h6-5---|
A ------------------------------------------|
E ------------------------------------------|
guitar2
e ---------------11-----------11-----------11-|
b ---9-9-8-8h9-8----9-8-8h9-8----9-8-8h9-8----|
g --------------------------------------------|
D --------------------------------------------|
A --------------------------------------------|
E --------------------------------------------|
pre-cho
  maari bng magtanong... (bahala na kau sa palmute)
e -------------------------------------|
b -------------------------------------|
g ------------------8----5--------6----|
D ---3----6----3----8----5--------6----|
A ---3----6----3----6----3--------4----|
E ---1----4----1-----------------------|

sana tama yan...
hi! sa lahat ng mga musika members ng adamson univ. kaya natin 2, wag taung mawalan ng 
lalo na sa presidnte ng musika, d2 lang kami d ka namin iiwan! ilabyouw!
hi din sa mga kabanda ko! Curtain Clouds!!!
            
Submit corrections

↑ Back to top | Join The Club Tabs for Lunes. Lyrics for acoustic guitar and electric guitar. Tablatures and chords are parodies/interpretations of the original songs. You may use it for private study, scholarship, research or language learning purposes only