» » »

Johnny Cash, Casey Jones Bass tabs (ver.1)

Artists:  A B C D E F G H I J K L M N O P Q R S T U V W X Y Z # 

Casey Jones Bass tabs (ver.1)

Johnny Cash Tabs
Rating:
0/5 (0 votes)
Casey Jones lessons Tabs too difficult? Try these video lessons and learn fast
                -------------------------------------------------------------------------------
-------------------------------------------------------------------------------  

Tuning: Standard

G|---------------------------------|---------------------------------|
D|---------------------------------|---------------------------------|
A|8---8---8---8---8---8---8-8-10---|8---8---8-8---8-8---8---8---10---|
E|--8---8---8---8---8---8--------8-|--8---8-----8-----8---8---8----8-|

G|--------------------------------|--------------------------------|
D|--------------------------------|--------------------------------|
A|8---8---8-8---8-8---8---8---8---|8---8---8-8---8---8---8---8---8-|
E|--8---8-----8-----8---8---8---8-|--8---8-----8---8---8---8---8---|

G|---------------------------------|------------------------------------------------|
D|---------------------------------|------------------------------------------------|
A|--8-8---8-8-10---8---8---8-8---8-|11----11----11----11----11-11-13----11----11----|
E|8-----8--------8---8---8-----8---|---11----11----11----11----------11----11----11-|

G|-----------------------------------------------|-----------------------------------------------|
D|-----------------------------------------------|-----------------------------------------------|
A|11-11----11-11----11----11-11-11----11----11---|11-11----11----11----11----11----11----11-11---|
E|------11-------11----11----------11----11----11|------11----11----11----11----11----11-------11|

G|-----------------------------------------------|-----------------------------------------------|
D|-----------------------------------------------|-----------------------------------------------|
A|11-11-13----11----11----11-11----11-11----11---|11----11-11----11-11-13----11----11----11-11---|
E|---------11----11----11-------11-------11----11|---11-------11----------11----11----11-------11|

G|------------------------------------------------|----------------------------------|
D|------------------------------------------------|----------------------------------|
A|11----11-11----11----11----11----11----11-11----|11-8---8---8---8---8---8---8-8-10-|
E|------------11----11----11----11----11-------11-|-----8---8---8---8---8---8--------|

G|--------------------------------|--------------------------------|
D|--------------------------------|--------------------------------|
A|--8---8---8-8---8-8---8---8---8-|--8---8---8-8---8---8---8---8---| fade out
E|8---8---8-----8-----8---8---8---|8---8---8-----8---8---8---8---8-|


comments & ratings welcome... enjoy!
            

comments powered by Disqus
↑ Back to top | Johnny Cash Bass for Casey Jones. Lyrics for acoustic guitar and electric guitar. Tablatures and chords are parodies/interpretations of the original songs. You may use it for private study, scholarship, research or language learning purposes only