» » »

John Michael Montgomery, Hold On To Me Tabs (ver.1)

Artists:  A B C D E F G H I J K L M N O P Q R S T U V W X Y Z # 

Hold On To Me Tabs (ver.1)

John Michael Montgomery Tabs
 Rating:
4/5 (4 votes)
Hold On To Me lessons Tabs too difficult? Try these video lessons and learn fast
1
                ---------------------------------------------------------------

   JOHN MICHAEL MONTGOMERY - HOLD ON TO ME Released by Atlantic 
                             Nashville on 10th June 1998.

---------------------------------------------------------------






I wanna wake up each morning
With you for the rest of my life
I wanna feel your heart beating
And just get lost in your eyes
You can tell me your secrets
You can let me feel your pain
You can show me your weakness
And never be ashamed

Hold on to me when your world's turnin' cold
When it feels like your life's spinnin' out of control
You're hopin', prayin', tryin' so hard to believe
Hold on to me when there's no middle ground
And every emotion is comin' unwound
And you don't know if you can hold on to your dreams
Baby you can hold on to me

I wanna lay down each evenin'
With you right here by my side
I wanna get drunk on your laughter
And wipe all the tears when you cry
You can scare me with your darkness
You can blind me with your light
Throw your worries out the window baby
On your wildest night

Hold on to me when your world's turnin' cold
When it feels like your life's spinnin' out of control
You're hopin', prayin', tryin' so hard to believe
Hold on to me when there's no middle ground
And every emotion is comin' unwound
And you don't know if you can hold on to your dreams
Baby you can hold on to me

Hold on to me when there's no middle ground
And every emotion is comin' unwound
And you don't know if you can hold on to your dreams
Baby you can hold on I said
Baby you can hold on I said
Baby you can hold on to me

 



    Use a capo on the 1st fret 



    12/8




    Intro
   
                                    
  
e|------ ------ ------ ------|------ ------ ------ ------|
B|-------0-------------0-----|-------0-------------0-----|
G|----2----2--------2----2---|----2----2--------2----2---|
D|--2--------2----2--------2-|--2--------2----2--------2-|
A|0-------------2------------|4-------------5------------|
E|---------------------------|---------------------------|




e|------ ------ ------ ------|------ ------ ------ ------|
B|-------0-------------0-----|-------0-------------0-----|
G|----2----2--------2----2---|----2----2--------2----2---|
D|--2--------2----2--------2-|--2--------2----2--------4-|
A|0-------------2------------|4-------------5------------|
E|---------------------------|---------------------------|



  
e|0----- ------|
B|3------------|
G|2------------|
D|2------------|
A|-------------|
E|0------------|




I wanna wake up each morning
With you for the rest of my life

e|------ 0----- ------ 0-----|------ 0----- ------ 0-----|
B|-------0-------------0-----|-------0-------------0-----|
G|----2----2--------2----2---|----2----2--------2----2---|
D|--2--------2----2--------2-|--2--------2----2--------2-|
A|0-------------2------------|4-------------5------------|
E|---------------------------|---------------------------|






I wanna feel your heart beating
And just get lost in your eyes 

e|------ ------ ------ ------|------ ------ ------ 0-----|
B|-------0-------------0-----|-------0-------------3-----|
G|----2----2--------2----2---|----2----2--------2--2H4---|
D|--2--------2----2--------2-|--2--------2----2--------4-|
A|0-------------2------------|4-------------5------------|
E|---------------------------|---------------------------|
     
         (It may be easier the following)

e|------ ------ ------ ------|------ ------ ------ 0-----|
B|-------0-------------0-----|-------0-------------3-----|
G|----2----2--------2----2---|----2----2--------2--2H4---|
D|--2--------2----2--------2-|--2--------2--0H2----0---4-|
A|0-------------2------------|4--------------------------|
E|---------------------------|---------------------------|

      




You can tell me your secrets
You can let me feel your pain 
 
e|------ 5----- ------ 5-----|------ 5----- ------ ------|
B|----2----2--------2----2---|----4----4-------3---3-----|
G|--2--------2----2--------2-|--2--------2-----2H4-2-----|
D|4-------------2------------|--4-----------0------------|
A|---------------------------|2--------------------------|
E|---------------------------|---------------------------|
  
e|------ 2----- ------ 2-----|------ 2----- ------ 0-----|
B|----2----2--------2----2---|----4----4--------3----3---|
G|--2--------2----2-------2--|--2--------2----2--------2-|
D|4-------------2------------|--------------0------------|
A|---------------------------|2--------------------------|
E|---------------------------|---------------------------|





You can show me your weakness
And never be ashamed

e|------ 5----- ------ 5-----|------ 5----- ----2- 2-2-2-|
B|----2----2--------2----2---|-------4----------4--4-4-4-|
G|--2--------2----2--------2-|----2----2--------2--2-2-2-|
D|4-------------2------------|--4--------4----4-4--4-4-4-|
A|---------------------------|2-------------2---2--2-2-2-|
E|---------------------------|---------------------------|

e|------ 2----- ------ 2-----|------ 2----- ------ 0-----|
B|----2----2--------2----2---|----4----4-----------4-----|
G|--2--------2----2-------2--|--2--------2---------0-----|
D|4-------------2------------|--------------4------------|
A|---------------------------|2-------------2------------|
E|---------------------------|---------------------------|
  



   
   


                   CHORUS

Hold on to me when your world's turnin' cold
When it feels like your life's spinnin' out of control
You're hopin', prayin', tryin' so hard to believe
Hold on to me when there's no middle ground
 
Hold on to me when there's no middle ground
And every emotion is comin' unwound

  A             Dmaj7         Bm            Esus4  E
e|0---0- 0-0-0- 2---2- 2-2-2-|2---2- 2-2-2- 0-0-0- 0---0-|
B|2---2--2-2-2--2---2--2-2-2-|3---3--3-3-3--0-0-0--0---0-|
G|2---2--2-2-2--2---2--2-2-2-|4---4--4-4-4--2-2-2--1---1-|
D|2---2--2-2-2--4---4--4-4-4-|4---4--4-4-4--2-2-2--2---2-|
A|0---0--0-0-0--5---5--5-5-5-|2---2--2-2-2--2-2-2--2---2-|
E|---------------------------|--------------0-0-0--0---0-|


  A             Dmaj7         Bm            Esus4  E
e|0---0- 0---0- 2---2- 2-2-2-|2-2-2- 2-2-2- 0-0-0- 0---0-|
B|2---2--2---2--2---2--2-2-2-|3-3-3--3-3-3--0-0-0--0---0-|
G|2---2--2---2--2---2--2-2-2-|4-4-4--4-4-2--2-2-2--1---1-|
D|2---2--2---2--4---4--4-4-4-|4-4-4--4-4-4--2-2-2--2---2-|
A|0---0--0---0--5---5--5-5-5-|2-2-2--2-2-2--2-2-2--2---2-|
E|---------------------------|--------------0-0-0--0---0-|


  A             Dmaj7         Bm            Esus4  E
e|0---0- 0---0- 2-2-2- 2-2-2-|2-2-2- 2---2- 0-0-0- 0---0-|
B|2---2--2---2--2-2-2--2-2-2-|3-3-3--3---3--0-0-0--0---0-|
G|2---2--2---2--2-2-2--2-2-2-|4-4-4--4---4--2-2-2--1---1-|
D|2---2--2---2--4-4-4--4-4-4-|4-4-4--4---4--2-2-2--2---2-|
A|0---0--0---0--5-5-5--5-5-5-|2-2-2--2---2--2-2-2--2---2-|
E|---------------------------|--------------0-0-0--0---0-|




And you don't know if you can hold on to your dreams
Baby you can hold on to me 

  F#m           E6            B             Bsus4  B
e|2---2- 2---2- 0---0- 0---0-|2-2-2- -2---- 2--22- 2-2-2-|
B|2---2--2---2--2---2--2---2-|4-4-4---4-----5--55--4-4-4-|
G|2---2--2---2--1---1--1---1-|4-4-4---4-----4--44--4-4-4-|
D|4---4--4---4--2---2--2---2-|4-4-4---4-----4--44--4-4-4-|
A|4---4--4---4--2---2--2---2-|2-2-2---2-----2--22--2-2-2-|
E|2---0--0---0--0---0--0---0-|---------------------------|




  D             E 
e|2---2- 2---2- 0----- ------|
B|3---3--3---3--0------------|
G|2---2--2---2--1------------|
D|0---0--0---0--2------------|
A|--------------2------------|
E|--------------0------------|





e|------ ------ ------ ------|------ ------ ------ ------|
B|-------0-------------0-----|-------0-------------0-----|
G|----2----2--------2----2---|----2----2--------2----2---|
D|--2--------2----2--------2-|--2--------2----2--------4-|
A|0-------------2------------|4-------------5------------|
E|---------------------------|---------------------------|



  
e|0----- ------|
B|3------------|
G|2------------|
D|2------------|
A|-------------|
E|0------------|





I wanna lay down each evenin'
With you right here by my side
I wanna get drunk on your laughter
And wipe all the tears when you cry
You can scare me with your darkness
You can blind me with your light
Throw your worries out the window baby
On your wildest night 

  A             Bm     Bm7    A             Dsus2 
e|0-000- 0-0-0- 2-2-2- 5-----|0-000- 0-0-0- 0-000- 0-0-0-|
B|2-222--2-2-2--3-3-3--3-3-3-|2-222--2-2-2--3-333--3-3-3-|
G|2-222--2-2-2--4-4-4--2-2-2-|2-222--2-2-2--2-222--2-2-2-|
D|2-222--2-2-2--4-4-4--4-4-4-|2-222--2-2-2--0-000--0-0-0-|
A|0-000--0-0-0--2-2-2--2-2-2-|0-000--0-0-0---------------|
E|---------------------------|---------------------------|


  A             Bm     Bm7    A             Dsus2 
e|0-0-0- 0-0-0- 2-2-2- 2-2-2-|0--00- 0-0-0- 0-000- 0-0-0-|
B|2-2-2--2-2-2--3-3-3--3-3-3-|2--22--2-2-2--3-333--3-3-3-|
G|2-2-2--2-2-2--4-4-4--2-2-2-|2--22--2-2-2--2-222--2-2-2-|
D|2-2-2--2-2-2--4-4-4--4-4-4-|2--22--2-2-2--0-000--0-0-0-|
A|0-0-0--0-0-0--2-2-2--2-2-2-|0--00--0-0-0---------------|
E|---------------------------|---------------------------|


 
  F#m           F#m7          B             Dsus2
e|2-222- 2-2-2- 2-222- 2-2-2-|2-2-2- 2-2-2- 0-0-0- 0-----|
B|2-222--2-2-2--2-222--2-2-2-|4-4-4--4-4-4--3-3-3--3--3-2|
G|2-222--2-2-2--2-222--2-2-2-|4-4-4--4-4-4--2-2-2--2H42--|
D|4-444--4-4-4--2-222--2-2-2-|4-4-4--4-4-4--0-0-0--0--0--|
A|4-444--4-4-4--4-444--4-4-4-|2-2-2--2-2-2---------------|
E|2-222--2-2-2--2-222--2-2-2-|---------------------------|



  F#m           F#m7          B  
e|2-2-2- 2---2- 2-222- 2-2-2-|2-2-2- 2-222- 2-2-2- 2-2-2-|
B|2-2-2--2---2--2-222--2-2-2-|4-4-4--4-444--4-4-4--4-4-4-|
G|2-2-2--2---2--2-222--2-2-2-|4-4-4--4-444--4-4-4--4-4-4-|
D|4-4-4--4---4--2-222--2-2-2-|4-4-4--4-444--4-4-4--4-4-4-|
A|4-4-4--4---4--4-444--4-4-4-|2-2-2--2-222--2-2-2--2-2-2-|
E|2-2-2--2---2--2-222--2-2-2-|---------------------------|





                   CHORUS....ETC...

                   

  



        B  Bend
        R  Release
        /  Slide up
        \  Slide down
        H  Hammer-on
        P  Pull-off
        ~  Vibrato
        +  Harmonic
        x  Mute note
        .  Play note like a dot in standard notation
        ^  Ties two notes together
        (. Pause
        T  Thumb
            
Submit corrections

comments powered by Disqus
↑ Back to top | John Michael Montgomery Tabs for Hold On To Me. Lyrics for acoustic guitar and electric guitar. 1 Tablatures and chords are parodies/interpretations of the original songs. You may use it for private study, scholarship, research or language learning purposes only