» » »

John Mayer, Wheel Tabs (ver.2)

Artists:  A B C D E F G H I J K L M N O P Q R S T U V W X Y Z # 

Wheel Tabs (ver.2)

John Mayer Tabs
 Rating:
4/5 (4 votes)
Wheel lessons Tabs too difficult? Try these video lessons and learn fast
                John Mayer - Wheel
Heavier Things

I'm pretty sure this song is supposed to be in Drop D, but I hate alternate tunings, so here it is in standard.

INTRO

E-----8-------8-------8-------8---------    
B-----8-------10------8-------10---8-10-
G-----10------10------10------10--------  
D-----10------10------10------10--------
A-----8-------8-------8-------8---------
E-----8---------------8-----------------


VERSE PT 1

E-----8-------8---------8--10---8-------   
B-----8-------10---8-10-8-------10------
G-----10------10--------10------10------
D-----10------10--------10------10------
A-----8-------8---------8-------8-------
E-----8-----------------8---------------


VERSE PT 2

E-------------5--------------    
B-------------6--------------
G-----10------5--------------
D-----10------7--------------
A-----8-------5--------------
E-----6----------------------


CHORUS

E-------------5------8----------     ---------------5------
B------10-----6------8----------     ---------------6------
G------10-----5------9-------10-(x2) -------10------5------
D------10-----7------10------10-     -------10------7------
A------8------5------10------8--     -------8-------5------
E--------------------8-------6--     -------6--------------


OUTRO
E-------------5------------------------------
B------10-----6---------------10-------------
G------10-----5------10-------10-------------
D------10-----7------10-------10-------------
A------8------5------8--------8--------------
E--------------------6-----------------------



Lyrics

INTRO

VERSE PT 1
People have the right to fly
And, well, when it gets compromised

VERSE PT 2
Their hearts say "Move along" 
Their minds say "Gotcha heart"
Let’s move it along 
Let’s move it along 

VERSE PT 1
And airports 
See it all the time

VERSE PT 2
With someone's last goodbye
Blends in with someone’s sigh
Cause someone's coming home
In hand a single rose 

CHORUS
And that's the way this wheel keeps working now
That's the way this wheel keeps working now
And I won't be the last
No I won't be the last,
To love her

VERSE PT 1
And you can't build a house of leaves
And live like it’s an evergreen

VERSE 2
It's just a season thing
It's just this thing that seasons do

CHORUS
And that's the way this wheel keeps working now
That's the way this wheel keeps working now
And you won't be the first
No you won't be the first 
To love me

VERSE 1
VERSE 2
VERSE 1
VERSE 2

VERSE 1
You can find me, if you ever want to give

VERSE 2
I'll be around the bend  
I'll be around
And if you never stop when you wave goodbye
You just might find if you give it time
You will wave hello again 
You just might wave hello again 

CHORUS (without second part)
And that's the way this wheel keeps working now
That's the way this wheel keeps working now

OUTRO
You can't love too much, one part of it 
I believe that my life's gonna see
The love I give 
Return to me
            
Submit corrections

comments powered by Disqus
↑ Back to top | John Mayer Tabs for Wheel. Lyrics for acoustic guitar and electric guitar. Tablatures and chords are parodies/interpretations of the original songs. You may use it for private study, scholarship, research or language learning purposes only