>
 >
Waiting On The World To Change 2

Waiting On The World To Change 2 Guitar Tabs

John Mayer - Waiting On The World To Change 2 chords, tabs, tablatures, lyrics

Guitar lessons | Add/correct | Request | Top 50 tabs Artists:  A B C D E F G H I J K L M N O P Q R S T U V W X Y Z 0-9

Waiting On The World To Change 2 Guitar Tabs – John Mayer

CD, Sheet music, Poster

Do you like Waiting On The World To Change 2? Share with your friends now
Bass TabsBass Tabs v2ChordsChords v2Chords v3Chords v4Chords v5Chords v6TabsTabs v2Tabs v3Tabs v4Tabs v5Tabs v6Tabs v7Tabs v8Ukulele
Waiting On The World To Change
(Album Version)


(I)
e|---------------------------------------------------------------|
B|---------10-----7---------3------------------------------------|
G|---------11-----7h9-------4--------7---------------------------|
D|---------12---------------5--------7---------------------------|
A|-------------------------------5--5----------------------------|
E|----10--------7--------3---------------------------------------|

e|---------------------------------------------------------------|
B|--------5---------7---------3----------------------------------|
G|--------6---------7h9-------4-----7----------------------------|
D|--------7-------------------5-----7----------------------------|
A|----------------------------------5----------------------------|
E|----5------/7--7---------3-------------------------------------|

(II)
e|---------------------------------------------------------------|
B|----7----8----7----8--------5-----7h8r7------------3-----------|
G|----7----7----7----7--------6-----------7h9r8------4---7-------|
D|----7----9----7----9--------7-----------------9----5---7-------|
A|-------------------------------------------------------5-------|
E|----7----7----7----7-----5------7----------------3-------------|

(III)
this jam is tough to tab out and definitely tough
to reach but I think it is fairly accurate.
e|---------------------------------------------------------------|
B|---------------------------------------------------------------|
G|---------------------------------------------------------------|
D|------8---------8-----8----8--8------8-------------------------|
A|------7---------7-----7----7--7------7-------------------------|
E|---3-----3---3-----3--------------3----------------------------|

SOLO
Leads in with the (7) ringing out
e|---------------------------------------------------------------|
B|-----7~~~~~~--5h75h7/10---7h10/12---10h12/15------------------|
G|---------------------------------------------------------------|
D|---------------------------------------------------------------|
A|---------------------------------------------------------------|
E|---------------------------------------------------------------|

e|---------------------------------------------------------------|
B|-----12h15/17--17/19--15-----b20r19b20r19b202r19---15---------|
G|---------------------------------------------------------------|
D|---------------------------------------------------------------|
A|---------------------------------------------------------------|
E|---------------------------------------------------------------|

e|---------------------------------------------------------------|
B|-----------12/15-----12--------------7/10----------------------|
G|-----11h14--------14-----11------7h9------9--11----------------|
D|-------------------------------------------------12------------|
A|---------------------------------------------------------------|
E|---------------------------------------------------------------|

(I)
me and all my friends
we're all misunderstood
they say we stand for nothing and
there's no way we ever could

(I)
now we see everything that's going wrong
with the world and those who lead it
we just feel like we don't have the means
to rise above and beat it

(I)
so we keep waiting
waiting on the world to change
we keep on waiting
waiting on the world to change

(II)
it's hard to beat the system
when we're standing at a distance
so we keep waiting
waiting on the world to change

(I)
now if we had the power
to bring our neighbors home from war
they would have never missed a Christmas
no more ribbons on their door

(I)
and when you trust your television
what you get is what you got
cause when they own the information, oh
they can bend it all they want

(I)
that's why we're waiting
waiting on the world to change
we keep on waiting
waiting on the world to change

(II)
it's not that we don't care,
we just know that the fight ain't fair
so we keep on waiting
waiting on the world to change


(III)

SOLO

(I)
and we're still waiting 
waiting on the world to change
we keep on waiting waiting on the world to change

(II)
one day our generation
is gonna rule the population
so we keep on waiting
waiting on the world to change

we keep on waiting
waiting on the world to change

| /  slide up
| \  slide down
| h  hammer-on
| p  pull-off
| ~  vibrato
| +  harmonic
| x  Mute note





Comments


Popular John Mayer tabs & chords
Comfortable Chords
Say Chords
Walt Graces Submarine Test January 1967 4 Chords
Wherever You Go Chords
Wonderland Drum Tabs
Hurt 1 Tabs
In Your Atmosphere 2 Tabs
My Stupid Mouth Intro Tabs
Try Tabs
Your Body Is A Wonderland 4 Tabs


Song lyrics



↑ Back to top | Tablatures and chords are parodies/interpretations of the original songs. You may use it for private study, scholarship, research or language learning purposes only
© 2014 AZChords.com Contact us | Privacy policy | DMCA | Add/correct tabs | Request tabs | Top 50 tabs