>
 >
Sucker 1

Sucker 1 Guitar Tabs

John Mayer - Sucker 1 chords, tabs, tablatures, lyrics

Guitar lessons | Add/correct | Request | Top 50 tabs Artists:  A B C D E F G H I J K L M N O P Q R S T U V W X Y Z 0-9

Sucker 1 Guitar Tabs – John Mayer

CD, Sheet music, Poster

Do you like Sucker 1? Share with your friends now
TabsTabs v2
John Mayer - Sucker

e---7b--7b------ ----------------------- 
b---8b--8b------ ------9-----9--12---5-- 
g-----------9--- ------9-----9--11---7-- 
d--------------- ------9-----9---9---7-- 
a--------------- ----------------------- 
e--------------- ---0-----0----------7-- 
  
e----------------------0------0--------------------------------0--------0-
b---9------9---12---5------5----------------------9--12----5--------5-----
g---9------9---11---7------7----------------------9--11----7--------7-----
d---9------9----9---7------7----------------------9---9----7--------7-----
a-------------------------------------/7----------------------------------
e---0---0-----------7------7------0h3-----0----0-----------7--------7-----
 
e-------------------0------0------- 
b---9--12--12----5------5---------- 
g---9--11--11----7------7----------  X2
d---9---9---9----7------7----------
a---------------------------------- 
e---0---0--------7------7-------0
 
e--------------------4-------------
b---5---4---7---2----2--(2)---0--0-
g---6---5---9---3----2--(2)---2--2-
d---5---4---9---2----x--(2)---1--1-
a---x---x---x---x----x--(x)---2--2-
e---5---4---9---2----2--------x----
 
e----------------------0------0--------------------------------0--------0-
b---9------9---12---5------5----------------------9--12----5--------5-----
g---9------9---11---7------7----------------------9--11----7--------7-----   
d---9------9----9---7------7----------------------9---9----7--------7-----
a-------------------------------------/7----------------------------------
e---0---0-----------7------7------0h3-----0----0-----------7--------7-----

e-------------------0------0------- 
b---9--12--12----5------5---------- 
g---9--11--11----7------7----------  X2
d---9---9---9----7------7----------
a---------------------------------- 
e---0---0--------7------7-------0
 
e------------------------4----------------
b---5-5--4-4--7-7--2-2---2-----2---0-0-0--
g---6-6--5-5--9-9--3-3---2-----2---2---2--
d---5-5--4-4--9-9--2-2---x----2----1---1--
a---x----x----x----x-----x--0------2---2--
e---5----4----9----2-----2----------------

e-------------------------------- 
b------9-----9--12---9-9--12-12--
g------9-----9--11---9-9-11-11-- 
d------9-----9---9---9-9---9-9--
a-------------------------------- 
e------0---0---------0-0---------


e----------------------------------------------------------------------------------------
b---4--5--4--5--5--9--9-------9---9----9-----4--------5---4-------5---10--10--------9--9-
g---4--4--4--4-----9--9--9----11--11--11----4------------4-----------9---9---9-----9--9-
d---2--2--2--2-----9--9----9--9---9----9-----2-----2------2----2------11--11----11--9--9-
a---0--0--0--0-----x----------x--------------0---0--------0--0--------9---9--------11-11-
e------------------0--0-------10--10---10------------------------------------------------ 
 




e----------------| ----------------------------------------------------------------------
b--4------5--4-4-| -9~---9~---9---------9---9---9---2--2---5-----------------------------
g--4---------4-4-| -9~--11~--10--------11--10--10---2--2---6-----------------------------
d--4----4--------| -9~---9~---9-----9-------9---9---2--2---7-----------------------------
a--2--2----------| ----------------------------------------------------------------------
e----------------| -0~--10~---9--9---------9---9---2--2---7-----------------------------


e----------------------0------0--------------------------------0--------0-
b---9------9---12---5------5----------------------9--12----5--------5-----
g---9------9---11---7------7----------------------9--11----7--------7-----   
d---9------9----9---7------7----------------------9---9----7--------7-----
a-------------------------------------/7----------------------------------
e---0---0-----------7------7------0h3-----0----0-----------7--------7-----

e-------------------0------0------- 
b---9--12--12----5------5---------- 
g---9--11--11----7------7----------  X2
d---9---9---9----7------7----------
a---------------------------------- 
e---0---0--------7------7-------0-

e-----------------------4-----------
b---5-5--4---7-7--2-2---2------0----
g---6-6--5---9-9--3-3---2------2----
d---5-5--4---9-9--2-2---x------1----
a---x----x---x----x-----x------2----
e---5----4---9----2-----2-----------

e-------------------------------- 
b------9-----9--12---9-9--12-12--
g------9-----9--11---9-9-11-11-- 
d------9-----9---9---9-9---9-9--
a-------------------------------- 
e------0---0---------0-0---------

e----------------------------------------------------------------------------------------
b---4--5--4--4--5-5--------9--9--------9----9---9----4-------5--4--4--5--5---10--10-----
g---4--4--4--4--4-4--------9--9--9-----11---11--11---4----------4--4--4--4---9---9---9--
d---2--2--2-2--2--2--------9--9----9---9----9---9----2-----2----2--2--2--2---11--11---11
a---0--0--0--0--0--0--------------------x----x---x----0--0-------0--0--0--0---9---9------
e----------------------0--0-0--0--------10---10--10--------------------------------------

e---------------------------------------------------------------------------------------
b--9---9--4------5---4-4----4---9~--9~---9---9-------9---9--9----9----2---2-2---55-5---9
g--9---9--4----------4-4----4---9~--11~--11--10-----11---10-10---10---2---2-2---66-6---9
d--9---9--4----4-----4-4----4---9~--9~---9---9----9------9--9----9----2---2-2---77-7---9
a-11--11--2--2-------2-2----2-----------------------------------------------------------
e-------------------------------0~--10~--10--9--9--------9--9----9----2---2-2---77-7---0                                                                                           
play last note repeatedly

e---------------------------0--------------------------
b-3-3-3-2-2-2-----5-5-5-0----3-3-----10-10-3-5--
g-4-4-4-3-3-3-----7-7-7-1----5-5-----12-11--3-6--
d-3-3-3-2-2-2-----7-7-7-0----5-5-----10-10-3-7--
a---------------------------2--------------------------
e-3-3-3-2-2-2---7-77-7-0-5-5-5-10---------3-7--
play last not repeatedly





Comments


Popular John Mayer tabs & chords
Assassin 5 Chords
Homelife Chords
In Your Atmosphere 1 Chords
California Dreamin 1 Tabs
Comfortable 2 Tabs
Good Love Is On The Way Tabs
Gravity 6 Tabs
Human Nature Intro 2 Tabs
Half Of My Heart Ukulele
Love Song For No One Ukulele


Song lyrics



↑ Back to top | Tablatures and chords are parodies/interpretations of the original songs. You may use it for private study, scholarship, research or language learning purposes only
© 2014 AZChords.com Contact us | Privacy policy | DMCA | Add/correct tabs | Request tabs | Top 50 tabs