» » »

Something's Missing Tabs (ver.1)

Artists:  A B C D E F G H I J K L M N O P Q R S T U V W X Y Z # 

Something's Missing Tabs (ver.1)

John Mayer
Rating:
0/5 (0 votes)

Hard to play? Try these video lessons and learn fast.
                Something's missing

Tuning:
e - e
B - B
G - F#
D - E
A - B
E - E

Part 1

Intro

e-----0----------------------------    ------0--------------------------------
B-----0----------------------------    ------0-----0----0----0----------------
F#----0----0---0---0---0-----------    ------0----0----0----0-----0-----------
E-----0---0---0---0---0--2p0------- or ------0-------------------0---2p0------
B---2-2--2---4---------------4p0---    ----2-2---2----4-----------------4p0---
E----------------2---4-------------    --------------------2----4-------------


Part 2

Verse

e----0----------0----------0---------------------
B----0----------0----------0----------0---0------
F#---2----------9----------5----------0---0------
E----0----------0----------5----------0---0------
B----2----------9----------x----------4----------
E---------------0----------5----------4----------
                         
Part 4

Chorus

e--------------------------------------------- ------------------
B---12-----------------12--------------------- ---5--5----7--7---
F#--12-----------------12--------------------- ---5--7----7--9---
E---12-11-------(x2)---12-11--------(x2)------ ---5--5----7--7---
B----9----12-9----------9----12-9------------- ---x--x----x--x---
E----0------(0)---------9------(9)------------ ---5--5----7--7--- 


Part 5

e--------------------------
B---12---------------------
F#--12---------------------
E---12-11--------(x4)------
B----9----12-9-------------
E----9------(9)------------


Part 6

e--(5)(5)-(7)(7)------------------ ---0---0---0-------
B---5--5---7--7----------0----0--- ---0---0---0---0---
F#--5--7---7--9----------0----0--- ---9---9---5---0---
E---5--5---7--7---(x3)---7----9--- ---0---0---5---0---
B---x--x---x--x---------10---12--- ---9---9---x---4---
E---5--5---7--7----------9---11--- ---9---0---5---4---
                                      

Part 7

e----0---0---0---0---
B----0---0---0---0---
F#---9---9---5---7---
E----0---0---5---7---
B----9---9---x---x---
E----0---9---5---7---



(1)

(2)
I'm not alone
I wish I was
Cause then I'd know
I'm down because
I couldn't find
A friend around
To love me like
They do right now
They do right now

(1)

(2)
I'm dizzy from
the shopping malls
I searched for hope
and I bought it out
it doesn't help
the hunger pains
the thirst I'd
have to drown first
to ever satiate

(4)
Something's missing
And I don't know how to fix it
Something's missing
And I don't know what it is
No I don't know what it is
At all

(1)

(2)
And autumn comes
It doesn't ask
it just walks in 
where it left you last
You never know
When it starts
Until there's fog
inside the glass
around your summer heart

(4)
Something's missing
And I don't how to fix it
Something's missing
And I don't know what it is
No I don't know what it is 
At all

(5)

(6)
I can't be sure that this state of mind
Is not of my own design
I wish there was an over the counter test
For loneliness, for loneliness
Like this
Something's missing
And I don't know how to fix it

(4)
Something's missing
And I don't know what it is
No I don't know what it is

(4 or 7, he's played both)
Friends check
Money check
Good times check
Guitar check
All check
All of you check
Everyone check
Having fun
Having fun

And I don't know what it is
No I don't know what it is
At all

(strum chorus to end of song)
            
Hard to play? Try these video lessons and learn fast. | Correct




comments powered by Disqus
↑ Back to top | Tablatures and chords are parodies/interpretations of the original songs. You may use it for private study, scholarship, research or language learning purposes only