>
 >
Only Heart 2

Only Heart 2 Guitar Tabs

John Mayer - Only Heart 2 chords, tabs, tablatures, lyrics

Guitar lessons | Add/correct | Request | Top 50 tabs Artists:  A B C D E F G H I J K L M N O P Q R S T U V W X Y Z 0-9

Only Heart 2 Guitar Tabs – John Mayer

CD, Sheet music, Poster

Do you like Only Heart 2? Share with your friends now
Bass TabsChordsTabsTabs v2Tabs v3Ukulele
-----------------------------------------------------------------
Only Heart - John Mayer
-----------------------------------------------------------------

Tuning: Standard Tuning (EADGBe)


Intro:

e|---6--------6------------6--------6------------6----------6---|
B|------8----------8----------8---------8-----------8-----------|
G|*--------7----------7/8--------8---------8h10--------10-------|
D|*-------------------------------------------------------------|
A|--------------------------------------------------------------|
E|--------------------------------------------------------------|

 1. e|---------------5-----5--5-----5---------  2. --5---------|
    B|--8------------6-----6--6-----6---------     --6---------|
    G|-----10----5---------------------5/7---*     --5---------|
    D|---------------------------------------*     ------------|
    A|----------------------------------------     ------------|
    E|----------------------------------------     ------------|

Verse:

e|----------------------------------------------------------------------------------------|
B|--3----3--------3----3--h--4----4----4----1--h--3----3----3----1--h--3----3----3--------|
G|--3----3--------3----3----------3----3----2--h--3----3----3----2--h--3----3----3--------|
D|--5----5--------5----3--h--5----5----5----1-----1----1----1----1----------1----1--------|
A|--x----x--------x----3----------3----3----x-----x----x----x----x----------x----x--------|
E|--3----3--------3-------------------------1-----1----1----1----1----------1----1----3---|
    *    *        *                         *     *    *    *    *          *    *    *  
play notes w/ thumb
    "Feel my chest..."
e|-----------------------------------------|
B|--3----3--------3----3--h--4----4----4---|
G|--3----3--------3----3----------3----3---|
D|--5----5--------5----3--h--5----5----5---|
A|--x----x--------x----3----------3----3---|
E|--3----3--------3------------------------|

Chorus:

e|------------------------------------------------------      --------------------------|
B|--3----8----7----2---2------2--3--2------2--2--2--3---      --3----8----7----6----5---|
G|--2----7----7----2---2------2--4--2------2--2--2--4---      --2----7----7----5----5---|
D|--4----9----7----2---2---4------------4--------------- (x2) --4----9----7----7----5---|
A|--2----7----9-----------------------------------------      --2----7----9----5----7---|
E|------------------------------------------------------      --------------------------|

Interlude:

e|---6--------6------------6--------6------------6----------6-------5---|
B|------8----------8----------8---------8-----------8----------8----6---|
G|---------7----------7/8--------8---------8h10--------10-----------5---|
D|----------------------------------------------------------------------|
A|----------------------------------------------------------------------|
E|----------------------------------------------------------------------|

Verse.
Chorus.

Solo:
                    * 1/4 bend                                              *1/4 bend
e|------------------6-------------------------------------------------------6-----|
B|---/8---/8---/8--------------/8---/8---/8------------------/8---/8---/8---------|
G|---/7---/7---/7--------------/7---/7---/7---5---3----------/7---/7---/7---------|
D|--------------------------------------------------------------------------------|
A|--------------------------------------------------------------------------------|
E|--------------------------------------------------------------------------------|

e|--------6---7b8-------8b10---8---6---7b8-------|
B|---/8-------------8------------------------8---|
G|---/7------------------------------------------|
D|-----------------------------------------------|
A|-----------------------------------------------|
E|-----------------------------------------------|

                   *1/4 bend
e|-------6------------------------------------------------------------|
B|---8-------7\5---3-------3---5/7---3h5---------5p3h5----------------|
G|---------------------5---------------------------------3--------3---|
D|--------------------------------------------------------------------|
A|--------------------------------------------------------------------|
E|--------------------------------------------------------------------|

e|---------------------------------------------------|
B|---------------------------------------------------|
G|-----------------------------3h5-----------5-\-3---|
D|-------------------------3-------------------------|
A|---5\3---------1---3/5-------------5-/-7-----------|
E|---------------------------------------------------|

e|-----------------------------------------------------------------------|
B|-----------------------------------------------------6-----------------|
G|-------------5\3--------------3--7p5--------------3-------5--3---------|
D|----------5--------------4h5-----------------1/3----------------5--3---|
A|---5-/-6---------------------------------------------------------------|
E|-----------------------------------------------------------------------|

e|-----------------------------------------------------------------------------------------|
B|-----------x---6---8-/-10---11--11/13--13b15--13b15--r13--b15--r13--b15--r13--b15--r13---|
G|---3---5---------------------------------------------------------------------------------|
D|-----------------------------------------------------------------------------------------|
A|-----------------------------------------------------------------------------------------|
E|-----------------------------------------------------------------------------------------|

Bridge:
    Rhythm:
e|--------5--------5--------------5--6-----6--------------3-----------3-----------3-----------3------|
B|-----6-----6--------6--------6--------------6--------4-----4-----4-----4-----4-----4-----4-----4---|
G|--5-----------5--------5--5-----------5--------5--3-----------3-----------3-----------3------------|
D|---------------------------------------------------------------------------------------------------|
A|---------------------------------------------------------------------------------------------------|
E|---------------------------------------------------------------------------------------------------|

    Lead: (starts at word "horn")
e|-----------------------------------------------|
B|---8---------6-------------------6-------------|
G|-----------------------7-------------------5---|
D|-----------------------------------------------|
A|-----------------------------------------------|
E|-----------------------------------------------|
"...that should hold my love..."
e|----------------------------------------------------|
B|---4---------3--------------------------------------|
G|-----------------------5---------3------5-p-3-\-2---|
D|----------------------------------------------------|
A|----------------------------------------------------|
E|----------------------------------------------------|
"...let me leave..."
e|-------------------------------------------------|
B|---------------------------------------------6---|
G|-------------2---------3------3------3-h-5-------|
D|---5---------------------------------------------|
A|-------------------------------------------------|
E|-------------------------------------------------|
..."I swear..."
e|---------------|
B|---------------|
G|---3---5---5---|
D|---5---3---5---|
A|-----------3---|
E|---------------|

Chorus.
Outro Chorus:

e|--------------------------|
B|---3----3-h-4----3----3---|
G|---3----3--------3----3---|
D|---5----3-h-5----3----1---|
A|---x----3--------5----x---|
E|---3------------------1---|


| / slide up
| \ slide down
| h hammer-on
| p pull-off
| ~ vibrato
| + harmonic
| x Mute note





Comments


Popular John Mayer tabs & chords
Wherever I Go 1 Chords
Why Georgia Chords
Why Georgia 3 Chords
Clarity 5 Tabs
Gravity Live Tabs
No Such Thing 4 Tabs
Something To Believe In Tabs
Vultures Tabs
Why Georgia 5 Tabs
Your Body Is A Wonderland 4 Tabs


Song lyrics



↑ Back to top | Tablatures and chords are parodies/interpretations of the original songs. You may use it for private study, scholarship, research or language learning purposes only
© 2014 AZChords.com Contact us | Privacy policy | DMCA | Add/correct tabs | Request tabs | Top 50 tabs