» » »

No Such Thing Tabs (ver.3)

Artists:  A B C D E F G H I J K L M N O P Q R S T U V W X Y Z # 

No Such Thing Tabs (ver.3)

John Mayer
Rating:
0/5 (0 votes)

Hard to play? Try these video lessons and learn fast.
                this song is quite easy in it's rhythm, just give it a few tries then
your good, the only challenge here is the strumming because of it's
irregular pattern, but once you get it, it'll be easy from then on...

standard tuning, irregular strumming

intro

e---x---x---(x)---x---(x)---x---(x)---x---
B---7---7---(7)---7---(7)---7---(7)---7---
G---8---9---(7)---8---(7)---9---(7)---8---
D---6---6---(6)---6---(6)---6---(6)---6---
A---7---7---(7)---7---(7)---7---(7)---7---
E---0---0---(0)---0---(0)---0---(0)---0---


verse 1

"welcome to the real world..."
"so, the good boys and girls..."
e---x---x----x---0------------
B---7---x----7---0------------
G---8---13---9---2------------
D---6---11---9---2------------
A---7---0----x---3------------
E---0--------9---x------------

verse 2

"well, I never lived the dream..."
"all of our parents, they're..."
e---x---x----x---0------------
B---7---x----7---2------------
G---8---13---9---3------------
D---6---11---9---2------------
A---7---0----x---x------------
E---0--------9---2------------

pre-chorus 1

"they love to tell you..."
e---0---0---0---0---0---0---0---0----x---
B---0---0---0---0---0---0---0---0----7---
G---2---4---1---2---4---6---9---13---8---
D---2---2---2---2---2---4---7---11---6---
A---0---0---0---0---0---0---0---0----7---
E------------------------------------0---

pre-chorus 2

"but something's better..."
e---0---0---0---x------------
B---0---0---0---7------------
G---3---4---4---8------------
D---2---2---2---6------------
A---x---0---x---7------------
E---2-------4---0------------

chorus (repeat as necessary)

"I wanna run through the halls..."
e---0---x---x---------------
B---x---6---6---------------
G---5---5---8---------------
D---5---7---6---------------
A---x---5---7---------------
E---5---x---0---------------


interlude (repeat as necessary)

"I'm invincible..."
e---0---0-0---0---
B---0---0-0---0---
G---2---6\2---2---
D---3---7\3---3---
A---x---x-x---x---
E---2---5-1---3---

jam

"as long as I'm alive..."
e---0---0---0---0---0---0---0---0---0---0---0---0---0----
B---0---0---7---7---7---0---0---0---0---0---0---0---0----
G---2---2---8---9---8---2---4---1---2---4---6---9---11---
D---3---3---6---6---6---2---2---2---2---2---4---7---13---
A---x---x---7---7---7---0---0---0---0---0---0---0---0----
E---1---3---0---0---0------------------------------------

afterwards, head back to the chorus tabs, do it 8x until the
ending and thats it... 
            
Hard to play? Try these video lessons and learn fast. | Correct




comments powered by Disqus
↑ Back to top | Tablatures and chords are parodies/interpretations of the original songs. You may use it for private study, scholarship, research or language learning purposes only