» » »

John Mayer, Half Of My Heart Tabs (ver.1)

Artists:  A B C D E F G H I J K L M N O P Q R S T U V W X Y Z # 

Half Of My Heart Tabs (ver.1)

John Mayer Tabs
 Rating:
4/5 (4 votes)
Half Of My Heart lessons Tabs too difficult? Try these video lessons and learn fast
                ok so it's a bit sketchy at the brigde but other than that it should be ok

Intro/Verse 
e|---------------------------------------------------------------------------|
B|-----------------------------------------------------------------6---------|
G|----------0------------------------------------5-------------7-------------|
D|-------3----------------0------0-----------5-------------7-----------------|
A|----1---------------3------3-----------3-------------5---------------------|
E|----------------1----------------------------------------------------------|

(mid way through the verse john stops to play chords like these)
    Bb      F       C     Dm
e|----------1----------------------------------------------------------------|
B|--3-------1-------5-----6--------------------------------------------------|
G|--3-------2-------5-----7--------------------------------------------------|
D|--3-------3-------5-----7--------------------------------------------------|
A|--1-------3-------3-----5--------------------------------------------------|
E|----------1----------------------------------------------------------------|

chorus (same chords as above just in a faster beat)
    Bb      F       C     Dm
e|----------1----------------------------------------------------------------|
B|--3-------1-------5-----6--------------------------------------------------|
G|--3-------2-------5-----7--------------------------------------------------|
D|--3-------3-------5-----7--------------------------------------------------|
A|--1-------3-------3-----5--------------------------------------------------|
E|----------1----------------------------------------------------------------|

Fill that happens at 1:25
      F     C     Dm
e|----1----------------------------------------------------------------------|
B|----1-----0------6---------------------------------------------------------|
G|----2-----5------7---------------------------------------------------------|
D|----3-----5------7---------------------------------------------------------|
A|----3-----3------5---------------------------------------------------------|
E|----1----------------------------------------------------------------------|



bridge(this is what im getting)
      F       C      Dm     Bb
e|----1----------------------------------------------------------------------|
B|----1-------0------6------0------------------------------------------------|
G|----2-------5------5------3------------------------------------------------|
D|----3-------5------5------3------------------------------------------------|
A|----3-------3------7------1------------------------------------------------|
E|----1----------------------------------------------------------------------|

you know what to do after that. hope this helps
end off with Dm
            
Submit corrections

comments powered by Disqus
↑ Back to top | John Mayer Tabs for Half Of My Heart. Lyrics for acoustic guitar and electric guitar. Tablatures and chords are parodies/interpretations of the original songs. You may use it for private study, scholarship, research or language learning purposes only