» » »

John Mayer, Edge Of Desire Tabs (ver.1)

Artists:  A B C D E F G H I J K L M N O P Q R S T U V W X Y Z # 

Edge Of Desire Tabs (ver.1)

John Mayer Tabs
Rating:
0/5 (0 votes)
Edge Of Desire lessons Tabs too difficult? Try these video lessons and learn fast
                -------------------------------------------------------------------------------
-------------------------------------------------------------------------------

Tuning: Standard

6/8 Time


Chords used:

e--0-------0-------------0---------------------|
B--0-------0-------------5---------------------|
G--7-------6-------------6------------6------9-|
D--7-------7-------------7---7----4---7------9-|
A--5-------5-----------------7----4---5------7-|
E------------------------5---5----2------------|
  D5(6/9) D5maj7(6/9)    A   A5  F#5 D5maj7  E5

For the sake of length we’ll call the chords D6/9, DM7(6/9), A, A5, F#5, D5M7, and E5 respectively

Verses
            x2                            x2
e|-------------------------|---------------------------------|
B|-------------------------|---------------------------------|
G|---------4---------6-4-6-|-------------9------------11-9-11|
D|-----6-----6-----4-----7-|-------11------11-------9------12|
A|---7---7-------7---------|----12----12---------12----------|
E|-5-----------5-----------|-10---------------10-------------|

e|-------------------------|---------------------------------|
B|-------------------------|-----10---9----------------------|
G|---------7-------6-7-----|--------------11-------9--9-9----|
D|-----7-----9---------9---|---9----9---9----9----12-11-9----|
A|---9---9-------9-------9-|------------------------------12-|
E|-7-----------7-----------|-0-------------------------------|

e|-------------------------|------------------------------|
B|-------------------------|------------------------------|
G|---------4---------6-4-6-|---------4---7---6---4--------|
D|-----6-----6-----4-----7-|-----6-----6---7---7---7------|
A|---7---7-------7---------|---7---7----------------------|
E|-5-----------5-----------|-5----------------------------|


Chorus
          x4            x4
e|-9-10------------|-------------|
B|------12---10----|-------------|
G|---------11--11--|-6-9-7-9-6---|
D|-----------------|-----------7-|
A|-----------------|-------------|
E|-----------------|-------------|
  mix D6/9&DM7(6/9)      A

You can combine the two by playing a D and an A like:
e-----------|
B--10--5----|
G--11--6----|
D--12--7----|
A-----------|
E--10--5----|
   D   A

Post-chorus

e|----(9)-(9)-------|
B|------------------|
G|-6-7-9-7-6--------|
D|-----------7------|
A|------------------|
E|------------------|

mix D6/9&DM7(6/9)
then

A5 | F#5 | D5M7(or just D5) | A5|

Solo
e|--------|---------|-------------------------|
B|--------|---------|-------------------------|
G|-16b18~-|-16b-18~-|-16b18b16b18b16b18b16b18-|
D|--------|---------|-------------------------|
A|--------|---------|-------------------------|
E|--------|---------|-------------------------|
    A5       F#5           D5

e|-----------------------|--------(12)(12b14)(12)(12)-----|
B|-----------------------|(14)(15)-14--14b15--14-14-------|
G|-14-16-16b18b18-16-16~-|-14--16-------------------------|
D|-----------------------|--------------------------------|
A|-----------------------|--------------------------------|
E|-----------------------|--------------------------------|
          E5                     F#5

e|---------(12)(12b14)(12)(12)|--------------------------|
B|-(14)(15)-14--14b15--14-14--|--------------------------|
G|--14--16--------------------|-(16)b18-r16p14----14~----|
D|----------------------------|----------------16--------|
A|----------------------------|--------------------------|
E|----------------------------|--------------------------|
                   D5                             A5

e|--------------------|----------------------17~---------|
B|-----------17-------|-14-15-17-19b21r19-17-------------|
G|-16b18b18(hold)b18~-|----------------------------------|
D|--------------------|----------------------------------|
A|--------------------|----------------------------------|
E|--------------------|----------------------------------|
         A5                                     D5


Ending is something like

e|---------------------|
B|---(10)(9)--(10)-----|
G|-6--7--9--7--6-------|
D|----------------7----|
A|---------------------|
E|---------------------|
       A
            

comments powered by Disqus
↑ Back to top | John Mayer Tabs for Edge Of Desire. Lyrics for acoustic guitar and electric guitar. Tablatures and chords are parodies/interpretations of the original songs. You may use it for private study, scholarship, research or language learning purposes only