» » »

John Mayer, Do You Know Me Tabs (ver.3)

Artists:  A B C D E F G H I J K L M N O P Q R S T U V W X Y Z # 

Do You Know Me Tabs (ver.3)

John Mayer Tabs
 Rating:
4/5 (4 votes)
Do You Know Me lessons Tabs too difficult? Try these video lessons and learn fast
1
                Do You know me- J. Mayer


INTRO
|-------9----------------7-------7---------9--------- ----7---------7-------------|  (2x)
|------------10----------10------------------- 10----------10---------------------|
|----9-----------9-----------9----9-----9------- ----9-----------9---9------------|
|-0------------0-------------------- -0------------0------------------------------|
|---------------------------------------------------------------------------------|
|---------------------------------------------------------------------------------|

V1
|------3-2---0-------------3-2---0-----------------|
|-----------3----0-3------------3------------------|
|----0---------------------0-----------2-4-2-------|
|--------------------------------------------------|
|--------------------------------------------------|
|--3---------------------3-------------------------|
It's just the strangest thing
                              I've seen your face somewhere
|-------9----------------7-------7---------9--------- ----7---------7-------------|
|------------10----------10------------------- 10----------10---------------------|
|----9-----------9-----------9----9-----9------- ----9-----------9---9------------|
|-0------------0-------------------- -0------------0------------------------------|
|---------------------------------------------------------------------------------|
|---------------------------------------------------------------------------------|

|------3-2---0-------------3-2---0-----------------|
|-----------3----0-3------------3------------------|
|----0---------------------0-----------2-4-2-------|
|--------------------------------------------------|
|--------------------------------------------------|
|--3---------------------3-------------------------|
  And early evening dream
                               A past night love affair
|-------9----------------7-------7---------9--------- ----7---------7-------------|
|------------10----------10------------------- 10----------10---------------------|
|----9-----------9-----------9----9-----9------- ----9-----------9---9------------|
|-0------------0-------------------- -0------------0------------------------------|
|---------------------------------------------------------------------------------|
|---------------------------------------------------------------------------------|


CHORUS
|------3-----3-----3-----3-----3-----3-----3-----3------|
|----3-----3-----3-----3-----3-----3-----3-----3--------|
|-------------------------------------------------------|
|-------------------------------------------------------|
|--2-----2-----2-----2-----3-----3-----3-----3----------|
|-------------------------------------------------------|
Do you know me?                                    At all

LICK
|----------------------------------------------------|
|-----3h--5--3\1---0---h1--0-------------------------|
|----------------------------------2p0-----0-2-------|
|--0-------------------------------------4-----------|
|----------------------------------------------------|
|----------------------------------------------------|

|------3-----3-----3-----3-----3-----3-----3-----3------|
|----3-----3-----3-----3-----3-----3-----3-----3--------|
|-------------------------------------------------------|
|-------------------------------------------------------|
|--2-----2-----2-----2-----3-----3-----3-----3----------|
|-------------------------------------------------------|
Do you know me?                                    At all

INTERLUDE
|-------9----------------7-------7--------9-------------7-------7-----|  (2x)
|------------10-----10---10-----------------10---10---10--------------|
|----9---9--------9-----------9--------9---9-----9-----------9--------|
|-0------------0--------------------0---------------------------------|
|---------------------------------------------------------------------|
|---------------------------------------------------------------------|

V2
|------3-2---0-------------3-2---0-----------------|
|-----------3----0-3------------3------------------|
|----0---------------------0-----------2-4-2-------|
|--------------------------------------------------|
|--------------------------------------------------|
|--3---------------------3-------------------------|
In all my reverie
                         I thought I felt us there

|------3-2---0-------------3-2---0-----------------|
|-----------3----0-3------------3------------------|
|----0---------------------0-----------2-4-2-------|
|--------------------------------------------------|
|--------------------------------------------------|
|--3---------------------3-------------------------|
A feather in my hand
                              A flower in your hair


D CHORUS
|------3-----3-----3-----3-----3-----3-----3-----3------|
|----3-----3-----3-----3-----3-----3-----3-----3--------|
|-------------------------------------------------------|
|-------------------------------------------------------|
|--2-----2-----2-----2-----3-----3-----3-----3----------|
|-------------------------------------------------------|
Do you know me?                                    At all


LICK
|----------------------------------------------------| REPEAT
|-----3h--5--3\1---0---h1--0-------------------------|
|----------------------------------2p0-----0-2-------|
|--0-------------------------------------4-----------|
|----------------------------------------------------|
|----------------------------------------------------|

|------3-----3-----3-----3-----3-----3-----3-----3------|
|----3-----3-----3-----3-----3-----3-----3-----3--------|
|-------------------------------------------------------|
|-------------------------------------------------------|
|--2-----2-----2-----2-----3-----3-----3-----3----------|
|-------------------------------------------------------|
Do you know me?                                    At all

LICK
|-------------------------------------------------------------------------|REPEAT (check a) ending)
|-----3h--5--3\1---0---h1--0----------------------------------------------|
|----------------------------------2p0-----------------       --------0-2-|
|--0-------------------------------------a) 4--2--0-     b) ----4---------|
|-------------------------------------------------------------------------|
|-------------------------------------------------------------------------|

OUTRO
|-------9----------9---7------7----- 7 ---------------| (3x)
|------------10------------------10-------------------|
|----9---9----------------9---------------------------|
|-0------------0--------------------------------------|
|-----------------------------------------------------|
|-----------------------------------------------------|

ENDING                  CHORD
|-------9----------9----------7-|
|------------10-----------10----|
|----9---9--------------9-------|
|-0------------0------0---------|
|-------------------------------|
|-------------------------------|
            
Submit corrections

comments powered by Disqus
↑ Back to top | John Mayer Tabs for Do You Know Me. Lyrics for acoustic guitar and electric guitar. 1 Tablatures and chords are parodies/interpretations of the original songs. You may use it for private study, scholarship, research or language learning purposes only