>
 >
Cissy Strut

Cissy Strut Guitar Tabs

John Mayer - Cissy Strut chords, tabs, tablatures, lyrics

Guitar lessons | Add/correct | Request | Top 50 tabs Artists:  A B C D E F G H I J K L M N O P Q R S T U V W X Y Z 0-9

Cissy Strut Guitar Tabs – John Mayer

CD, Sheet music, Poster

Do you like Cissy Strut? Share with your friends now
TabsTabs v2Tabs v3

Words and Music by: The John Mayer Trio

Tuning: Standard

This song is broken up into sections because it is an instrumental,
most if not all instrumentals are separated into parts so its easier to
follow along with it. I tabbed this from his VH1 performance so if you have that video 
can follow along with that when you play.

Key:

h -Hammer On
p -Pull Off
b -Bend
r -Release Bend
x -Muted String
v^ -Up and Down Stroke
/ -Slide Up
\ -Slide Down


Part A  (Guitar 1)

e-----------------------------------------------------------|
b------------------------------------xx--1111-x-1010--------|
g------------------------------------xx--1010-x-1010--------|
d--8h10-8----------------------------xx---------------------|
a---------10------------------------------------------------|
E-------------11b-8--x-x--6-8--6-8\-------------------------|
                                     v^

e-----------------------------------------------------------|
b------------------------------------xx--1111-x-1010--------|
g------------------------------------xx--1010-x-1010--------|
d--8h10-8----------------------------xx---------------------|
a---------10------------------------------------------------|
E-------------11b-8--x-x--6-8--6-8\-------------------------|
                                     v^

e-----------------------------------------------------------|
b------------------------------------xx--1111-x-1010--------|
g------------------------------------xx--1010-x-1010--------|
d--8h10-8----------------------------xx---------------------|
a---------10------------------------------------------------|
E-------------11b-8--x-x--6-8--6-8\-------------------------|
                                     v^

e-----------------------------------------------------------|
b------------------------------------xx--1111-x-1010--------|
g------------------------------------xx--1010-x-1010--------|
d--8h10-8----------------------------xx---------------------|
a---------10------------------------------------------------|
E-------------11b-8--x-x--6-8--6-8\-------------------------|
                                     v^

Part B

e----------------------------------------------------|
b---x-------------------xx---x-----------------------|
g---x-------------------xx---x-----------------------|
d--10-----10-8----10-8--xx--10-----10-8--------------|
a---x--10------10------------x--10-------10----------|
E-------------------------------------------8--------|

e----------------------------------------------------|
b---x-------------------xx---x-----------------------|
g---x-------------------xx---x-----------------------|
d--10-----10-8----10-8--xx--10-----10-8--------------|
a---x--10------10------------x--10-------10----------|
E-------------------------------------------8--------|

e----------------------------------------------------|
b---x-------------------xx---x-----------------------|
g---x-------------------xx---x-----------------------|
d--10-----10-8----10-8--xx--10-----10-8--------------|
a---x--10------10------------x--10-------10----------|
E-------------------------------------------8--------|

e----------------------------------------------------|
b---x-------------------xx---x-----------------------|
g---x-------------------xx---x-----------------------|
d--10-----10-8----10-8--xx--10-----10-8--------------|
a---x--10------10------------x--10-------10----------|
E-------------------------------------------8--------|

Part C

e-----------------------------------------------------------|
b------------------------------------xx--1111-x-1010--------|
g------------------------------------xx--1010-x-1010--------|
d--8h10-8----------------------------xx---------------------|
a---------10------------------------------------------------|
E-------------11b-8--x-x--6-8--6-8\-------------------------|
                                     v^

e-----------------------------------------------------------|
b------------------------------------xx--1111-x-1010--------|
g------------------------------------xx--1010-x-1010--------|
d--8h10-8----------------------------xx---------------------|
a---------10------------------------------------------------|
E-------------11b-8--x-x--6-8--6-8\-------------------------|
                                     v^

e-----------------------------------------------------------|
b------------------------------------xx--1111-x-1010--------|
g------------------------------------xx--1010-x-1010--------|
d--8h10-8----------------------------xx---------------------|
a---------10------------------------------------------------|
E-------------11b-8--x-x--6-8--6-8\-------------------------|
                                     v^

e-----------------------------------------------------------|
b------------------------------------xx--1111-x-1010--------|
g------------------------------------xx--1010-x-1010--------|
d--8h10-8----------------------------xx---------------------|
a---------10------------------------------------------------|
E-------------11b-8--x-x--6-8--6-8\-------------------------|
                                     v^

Part D

e----------------------------------------------------|
b---x-------------------xx---x-----------------------|
g---x-------------------xx---x-----------------------|
d--10-----10-8----10-8--xx--10-----10-8--------------|
a---x--10------10------------x--10-------10----------|
E-------------------------------------------8--------|

e----------------------------------------------------|
b---x-------------------xx---x-----------------------|
g---x-------------------xx---x-----------------------|
d--10-----10-8----10-8--xx--10-----10-8--------------|
a---x--10------10------------x--10-------10----------|
E-------------------------------------------8--------|

e----------------------------------------------------|
b---x-------------------xx---x-----------------------|
g---x-------------------xx---x-----------------------|
d--10-----10-8----10-8--xx--10-----10-8--------------|
a---x--10------10------------x--10-------10----------|
E-------------------------------------------8--------|

e----------------------------------------------------|
b---x-------------------xx---x-----------------------|
g---x-------------------xx---x-----------------------|
d--10-----10-8----10-8--xx--10-----10-8--------------|
a---x--10------10------------x--10-------10----------|
E-------------------------------------------8--------|

Part E (Solo)

e---8-8---------------------------8-8-------------------------|
b---x-x---------------------------x-x--------------8-9b-------|
g---9-9-------8-------------------9-9--10/12-12\10-8-9b-8-----|
d--------8h10----10p8-------------------------------------10--|
a---------------------h10-8-----------------------------------|
E---------------------------11b-------------------------------|

e--8-8-------8------------------------8-8---11b-11b-------------------------|
b--x-x---11b------------8--9----------x-x---10b-10b--9-8b--9-8--------------|
g--9-9----------10brp8--8--9----------9-9--(11b)11b--9-8b--9-8--------------|
d-----------------------------10-10-----------------------------10-8--------|
a---------------------------------------------------------------------------|
E---------------------------------------------------------------------------|

e------8--------------------------------------------------------------------|
b--11b-----------------------------------11---------------------------------|
g---------10brp8-----------8----------------12/10--8b-------10-10---8--8----|
d-----------------10-10-10----10p8-------------------10--/7--7--7---x--x----|
a---------------------------------10p8-----------------------------10-10----|
E---------------------------------------------------------------------------|

e--8-8--11b-8--8--11b-8-------------11b-8-----------------------------------|
b--x-x---------x--------------------------h11p8-------9-9--8----------------|
g--9-9---------9---------10p8-------------------h10p8-9-9--8----------------|
d-----------------------------10-8---------------------------10------8------|
a-----------------------------------------------------------------10--------|
E---------------------------------------------------------------------------|

Part F

e----------------------------------------------------|
b---x-------------------xx---x-----------------------|
g---x-------------------xx---x-----------------------|
d--10-----10-8----10-8--xx--10-----10-8--------------|
a---x--10------10------------x--10-------10----------|
E-------------------------------------------8--------|

e----------------------------------------------------|
b---x-------------------xx---x-----------------------|
g---x-------------------xx---x-----------------------|
d--10-----10-8----10-8--xx--10-----10-8--------------|
a---x--10------10------------x--10-------10----------|
E-------------------------------------------8--------|

e----------------------------------------------------|
b---x-------------------xx---x-----------------------|
g---x-------------------xx---x-----------------------|
d--10-----10-8----10-8--xx--10-----10-8--------------|
a---x--10------10------------x--10-------10----------|
E-------------------------------------------8--------|

e----------------------------------------------------|
b---x-------------------xx---x-----------------------|
g---x-------------------xx---x-----------------------|
d--10-----10-8----10-8--xx--10-----10-8--------------|
a---x--10------10------------x--10-------10----------|
E-------------------------------------------8--------|

Part G

e-----------------------------------------------------------|
b------------------------------------xx--1111-x-1010--------|
g------------------------------------xx--1010-x-1010--------|
d--8h10-8----------------------------xx---------------------|
a---------10------------------------------------------------|
E-------------11b-8--x-x--6-8--6-8\-------------------------|
                                     v^

e-----------------------------------------------------------|
b------------------------------------xx--1111-x-1010--------|
g------------------------------------xx--1010-x-1010--------|
d--8h10-8----------------------------xx---------------------|
a---------10------------------------------------------------|
E-------------11b-8--x-x--6-8--6-8\-------------------------|
                                     v^

e-----------------------------------------------------------|
b------------------------------------xx--1111-x-1010--------|
g------------------------------------xx--1010-x-1010--------|
d--8h10-8----------------------------xx---------------------|
a---------10------------------------------------------------|
E-------------11b-8--x-x--6-8--6-8\-------------------------|
                                     v^

e-----------------------------------------------------------|
b------------------------------------xx--1111-x-1010--------|
g------------------------------------xx--1010-x-1010--------|
d--8h10-8----------------------------xx---------------------|
a---------10------------------------------------------------|
E-------------11b-8--x-x--6-8--6-8\-------------------------|
                                     v^

This tab took a really really really long time and its 98% accurate. Enjoy :-)





Comments


Popular John Mayer tabs & chords
Bare Ballin Chords
No Such Thing 2 Chords
Gravity 7 Tabs
If I Ever Get Around To Living Tabs
Man On The Side Tabs
No Such Thing 1 Tabs
Untitled Song Tabs
Victoria Tabs
It Takes A Fool Ukulele
Say What You Need To Say Ukulele


Song lyrics



↑ Back to top | Tablatures and chords are parodies/interpretations of the original songs. You may use it for private study, scholarship, research or language learning purposes only
© 2014 AZChords.com Contact us | Privacy policy | DMCA | Add/correct tabs | Request tabs | Top 50 tabs