>
 >
Bold As Love 5

Bold As Love 5 Guitar Tabs

John Mayer - Bold As Love 5 chords, tabs, tablatures, lyrics

Guitar lessons | Add/correct | Request | Top 50 tabs Artists:  A B C D E F G H I J K L M N O P Q R S T U V W X Y Z 0-9

Bold As Love 5 Guitar Tabs – John Mayer

CD, Sheet music, Poster

Do you like Bold As Love 5? Share with your friends now
ChordsTabsTabs v2Tabs v3Tabs v4Tabs v5Tabs v6Ukulele
b= bend
br=release bend
p= pulloff
h= hammer on
/= slide 
v= vibrato
R= roll
o=repeat
TUNING HALF STEP DOWN!!!!!!!make sure the neck pickup is all the way up


|--------------|-------------|-------------|-----------|-------|
|--------------|-------------|-------------|-----------|-------|
|-4b-4bbrp2-4b-|-4b-4p2-4vvv-|-4bbrbbr-----|-2---2-----|-2R--2-|
|--------------|-------------|---------2p4-|---4---4-5-|---2R--|
|--------------|-------------|-------------|-----------|-------|
|--------------|-------------|-------------|-----------|-------|

|--------------|----------|---------------------|---5----9-------|
|-----10-------|----------|--------------2------|----------10-10-|
|----9--12bbrb-|-12b-12-9-|-4b-4-2-2---2R-4p2-2-|---------9--9---|
|-/11----------|----------|-------4-2h4------4--|-/7---/9--------|
|--------------|----------|---------------------|----------------|
|--------------|----------|---------------------|----------------|

||---------||----------------------------||---------------||
||o----15-o||-18bbr-15-18p17p15----------||o-18b-10------o||
||--17b----||-------------------17-14vvv-||--------17p15--||
||---------||----------------------------||---------------||
||o-------o||----------------------------||o-------------o||
||---------||----------------------------||---------------||

|------------------------------------|-----------------------------|
|-18b-18-----------------------------|-21b-21b-21b-21b-21b-21b--21-|
|-------17p15--15-17p15--17bbr-15vvv-|------------------------19---|
|------------17--------17------------|-----------------------------|
|------------------------------------|-----------------------------|
|------------------------------------|-----------------------------|

|-19b-19---20b-20--21b-21bbr---|----------------------5-5--3-3-|
|-------21-------21---------21-|-15-14-------10-9-----5-5--3-3-|
|------------------------------|-14-14-------9--9-----6-6--4-4-|
|------------------------------|-14-14--14/--9--9-9/--7----5---|
|------------------------------|-------------------------------|
|------------------------------|-------------------------------|

|------------------------|---5---9---------|
|--------------2---------|-----------------|
|-4b-4-2-2---2R-4p2-2vvv-|----------14vvvv-|
|-------4-2h4------4-----|-/7--/9----------|
|------------------------|-----------------|
|------------------------|-----------------|
distortion turned off
|----------------------|-----------|-----------------------------|
|-8--8-----------------|-----------|-----------------------------|
|-7b-7p5---------5-----|-12/14vvvv-|-16b-16b-16b-16b-16b---14vvv-|
|--------5vvvv-----7p5-|-----------|---------------------16------|
|----------------------|-----------|-----------------------------|
|----------------------|-----------|-----------------------------|

|----------------------------------------|-17/-|----------------|
|----------------------------------------|-----|----------------|
|-16b-16b-16b-16b-16b-16b-16b-17b-14vvv--|-----|-16bbrp14-14vvv-|
|----------------------------------------|-----|----------------|
|----------------------------------------|-----|----------------|
|----------------------------------------|-----|----------------|

|--------------------------------||-------------------||
|--------------------------------||o-8--8----5-------o||
|---5-7b-7-5------------5-7bbr-5-||--7b-7p5-7-7-5-----||
|-/7--------7p5--5-7p5-----------||--------------7-5--||
|--------------/7------7---------||o-----------------o||
|--------------------------------||-------------------||

||-------------||--------------------||--------||
||o-8--8------o||-8--8---------------||o------o||
||--7b-7p5--5--||-7b-7p5-5-----------||--5b-7--||
||--------7----||-------7-7-5--------||--5b-7--||
||o-----------o||------------7-5-3-0-||o------o||
||-------------||--------------------||--------||


for the intro verse and chorus i reccommend using JayTeeRocks07 version remember PLEASE RATE!!!!!





Comments


Popular John Mayer tabs & chords
Heartbreak Warfare 1 Chords
I Dont Need No Doctor Chords
My Stupid Mouth 2 Chords
Neon 2 Chords
Shadow Days 1 Chords
Waiting On The Day Chords
Heart Of Life Tabs
Route 66 Tabs
Your Body Is A Wonderland 7 Tabs
Somebody Loves You Ukulele


Song lyrics



↑ Back to top | Tablatures and chords are parodies/interpretations of the original songs. You may use it for private study, scholarship, research or language learning purposes only
© 2014 AZChords.com Contact us | Privacy policy | DMCA | Add/correct tabs | Request tabs | Top 50 tabs