» » »

Aint No Sunshine Tabs (ver.2)

Artists:  A B C D E F G H I J K L M N O P Q R S T U V W X Y Z # 

Aint No Sunshine Tabs (ver.2)

John Mayer
Rating:
0/5 (0 votes)

Hard to play? Try these video lessons and learn fast.
                -------------------------------------------------------------------------------
                             Ain't No Sunshine - John Mayer
-------------------------------------------------------------------------------
Tuning: Standard
Key: G

LIcks 1, 2, 3 can be played in any order before and after the "bridge" like lick that 
links the two parts of the main verse. This is just a general tab as john mayer frequently 
improvise's on the fly. Feel free to add your own improv in the key of G.

Cheers!

Lick 1
e|--------x-----3h6p3-0--------------------------------------------------------|
B|--------x-----3h6p3-0--------------------------------------------------------|
G|--------x--------------------------3h5p3-------------------------------------|
D|--------x---------------------5-----------5--3-------------------------------|
A|--------x----------------5h8-------------------------------------------------|
E|---3----x--------------------------------------------------------------------|
        T
Lick 2
e|-------x-----3h6p3-0-------------------------------------------------------|
B|-------x-----3h6p3-0-------------------------------------------------------|
G|-------x------------------------6/5-3--------------------------------------|
D|-------x---------------------5---------5--3--------------------------------|
A|-------x----------------5h8------------------------------------------------|
E|---3---x-------------------------------------------------------------------|
        T
Lick 3
e|-------x----3h6p3-0-----------------------------------------------------------|
B|-------x----3h6p3-0-----------------------------------------------------------|
G|-------x-----------------------/6\4---3---------------------------------------|
D|-------x--------------------5--/7\5-----5-------------------------------------|
A|-------x---------------5h8----------------------------------------------------|
E|---3---x----------------------------------------------------------------------|
        T
Bridge between main verse lick
e|-------x---------------------------------------------------------------------|
B|-------x----10h13p10---------------------------------------------------------|
G|-------x---------------10h12p10----------------------------------------------|
D|-------x--------------------------10h12p10----10-10h12-10--------------------|
A|-------x------------------------------------12-------------12--10-10h12///|--|
E|---10--x---------------------------------------------------------------------|
         T
e|------x----------------------------------------------------------------------|
B|------x-----8h11p8-----------------------------------------------------------|
G|------x--------------8h10p8--------------------------------------------------|
D|------x----------------------8h10p8------8-8h10-8----------------------------|
A|------x-------------------------------10-----------10-8-8h10/----------------|
E|---8--x----------------------------------------------------------------------|
        T

Slide back down to beginning position

************************************

| /   slide up
| \   slide down
| h   hammer-on
| p   pull-off
| ~   vibrato
| T Thumb
| x   Mute note

************************************
            
Hard to play? Try these video lessons and learn fast. | Correct




comments powered by Disqus
↑ Back to top | Tablatures and chords are parodies/interpretations of the original songs. You may use it for private study, scholarship, research or language learning purposes only