» » »

John Mayer, 83 Tabs (ver.2)

Artists:  A B C D E F G H I J K L M N O P Q R S T U V W X Y Z # 

83 Tabs (ver.2)

John Mayer Tabs
 Rating:
4.6/5 (10 votes)
83 lessons Tabs too difficult? Try these video lessons and learn fast
                83


Superman intro 

e----------------------------- 
b---------------5------------- 
g---4---6---9---6------------- 
d---2---4---7---4---(etc..)--- 
a---0---0---0---5------------- 
e----------------------------- 


Part 1

Verse 

e---------4--------4----------------------------------------------0---------0--- 
b---2-----2--------2----5-----5--------5----3----3------2----0----0----0----0---
g---------4--------4----4-----4--------4----0----0------0----0----0----0----0---
d---2-----2--------2----2-----2--------2----4----4------4----2---------4--------
a---0--0-----0--0-------0--0-----0--0-------------------------------------------
e-------------------------------------------0--0---0--0------0--0------0--0-----

* I think that John might be playing (02403x), (02402x), (022000), (024000), but it 
  doesn't really make a difference if you fingerpick the song.


Part 2

Oh these days.. 

e-------4---------- 
b---5---2---------- 
g---6---4----------
d---4---2---(x4)--- 
a---5---0---------- 
e------------------


Part 3

Chorus

e---0---------5---3----------------------
b---3--------(0)-(0)----------3---3--5---
g---5---------5---5-----------5---4--6---
d---5------4----------(x3)----5---2--4--- 
a---x---/5--------------------x---3--5---
e---5-------------------------5----------


Part 4

"And most my memories.."

e-------5--- ---4---x--x--x--x---4--(7)---x--x--x--x--- 
b---3---5--- ---5---2--2--2--2---5--(5)---2--2--2--2--- 
g---5---5--- ---4---3--3--4--3---4--(4)---3--3--4--3--- 
d---5---4--- ---6---2--2--2--2---6--(6)---2--2--2--2--- 
a---x---5--- ---4---x--x--x--x---4--(4)---x--x--x--x--- 
e---5------- -------2--2--2--2------------2--2--2--2--- 
                    T                     T

* (2x232x)/(2x242x) were taken from Elliot Kleinfelder's tab


Part 5

"If heaven's.." 

e-------2-----------------------5--- 
b---4---3---0-----0-----3---5---2--- 
g---4---2---1-(2)-1-----4---6---4--- 
d---4---4---0-(0)-0-----2---4---2--- 
a---2---2---2-(4)-2-----3---5---0--- 
e-----------0-(0)-0----------------- 


Jam

e---7---9---12------------- 
b----------------12---12--- 
g---7---9---12---12---11--- 
d----------------10---10--- 
a----------------12----x--- 
e---------------------10--- 


Part 6

"Was more like 1983.."

e----------------0---
b---12--12--10---0---
g---12--11--11---1---
d---10--10---9---4---
a---12---x---x---2---
e-------10--11---0---


Intro

(1) 

I have these dreams I'm walking home 
home where it used to be 
everything is as it was 
frozen in front of me 

Here I stand six feet small 
romanticizing years ago 
well it's a bittersweet feeling 
hearing "Wrapped Around Your Finger" on the radio 

(2) and these days 
I wish I was six again 
oh make me a red cape 
I wanna be Superman 

(3) oh if only my life was more like 1983 
all these things would be more like they were at the start of me 
I had it made in 83 

(1) 

thinking about my brother Ben 
I miss him everyday 
he looks just like his brother John 
but on an eighteen month delay 

here I stand six feet small 
and smiling cause I'm scared as hell 
kinda like your life is like a sequel to a movie 
where the actors' names have changed 

(2) well these days 
I wish I was six again 
oh make me a red cape 
I wanna be Superman 

(3) oh if only my life was more like 1983 
all these things would be more like they were at the start of me 
if my life was more like 1983 
plot a course to the source of the purest little part of me 

(4)

and most my memories have escaped me 
or confused themselves with dreams 
(5) if heaven's all they want it to be 
send your prayers to me care of 1983 

(Jam)

you can paint that house a rainbow of colors 
rip out the floorboards 
and replace the the shutters 
but that's my plastic in the dirt 

whatever happened to my 
whatever happened to my 
whatever happened to my lunchbox 
when came the day when it got 
thrown away and 
don't you think I should have had some say in that decision 

more like 
more like 
more like (7) 1983
            
Submit corrections

comments powered by Disqus
↑ Back to top | John Mayer Tabs for 83. Lyrics for acoustic guitar and electric guitar. Tablatures and chords are parodies/interpretations of the original songs. You may use it for private study, scholarship, research or language learning purposes only