» » »

John Mayer, "3 X 5" Tabs (ver.2)

Artists:  A B C D E F G H I J K L M N O P Q R S T U V W X Y Z # 

"3 X 5" Tabs (ver.2)

John Mayer Tabs
 Rating:
4/5 (4 votes)
 Tabs too difficult? Try these video lessons and learn fast
                3x5 live intro
john mayer

capo on 8th

any given thursday 3x5 intro



e---0--0--0--0--0--0--0--0------------------------------------------------
b---0--0--0--0--0--0--0--0------------------------------------------------
g---0--0--0--0--0--0--0--0----------------2x---------------------------
d---0--0--2--4--2--0--0--0------------------------------------------------
a---2--4--0--0--0--4--2--4-----------------------------------------------
e---3--3--3--3--3--3--3--3-------------------------------------------------

---0--0--0--0--0--0--0--0------------------------------------------------
---0--0--0--0--0--0--0--0------------------------------------------------
---0--0--0--0--0--0--0--0---------------2x----------------------------
---0--0--2--4--2--0--0--0------------------------------------------------
---2--4--0--0--0--4--2--4------------------------------------------------
---0--0--0--0--0--0--0--0------------------------------------------------

repeat that sequence, thats it
            
Submit corrections

comments powered by Disqus
↑ Back to top | John Mayer Tabs for "3 X 5". Lyrics for acoustic guitar and electric guitar. Tablatures and chords are parodies/interpretations of the original songs. You may use it for private study, scholarship, research or language learning purposes only