>
 >
Sleepers Awake

Sleepers Awake Guitar Tabs

Johann Sebastian Bach - Sleepers Awake chords, tabs, tablatures, lyrics

Guitar lessons | Add/correct | Request | Top 50 tabs Artists:  A B C D E F G H I J K L M N O P Q R S T U V W X Y Z 0-9

Sleepers Awake Guitar Tabs – Johann Sebastian Bach

CD, Sheet music, Poster

Do you like Sleepers Awake? Share with your friends now
Tabs
----------------------------------------------------------------------------
                 Sleepers, Awake - Johann Sebastian Bach
----------------------------------------------------------------------------



Tuning: (Standard) Drop D

                              

E||---------------------|----0-2--2--0--3--2--------|
B||---------------------|--3------------------------|
G||----------------2----|---------------------2--0--|
D||---------------------|---------------------------|
A||---------------------|---------------------------|
D||---------------------|--0------0-----0-----4-----|

  
--2---0--------------------|----0-2--2--0--3--2--------|
----3----------2--3--------|--3------------------------|
---------0--------------2--|---------------------2--0--|
------------4--------------|---------------------------|
---------0-----------------|---------------------------|
--5------------0-----------|--0------0-----0-----4-----|

  
--2---0-----------------5--|--5----3-2-0---0--------------|
----3----------2--3--------|-------------3---3-2-0----0-2-|
---------0-----------------|-----------------------2------|
------------4--------------|------------------------------|
---------0-----------------|-------2-------0--------------|
--5------------0-----------|--4--------------------5------|

  
----0-2-0-3-2-0---2--0--------|--2--4-----5----------------|
--3-------------3-------------|--------------3p-2-3-----0--|
---------------------------2--|----------------------------|
------------------------------|--0-------------------0-----|
------------------0-----4-----|--------4-----2-------------|
--4-------0-------------------|----------------------------|

 
--4--5-----7-------------10--|--9p-7-5--5p-4-5----4-2-0---------|
-----------------------------|--------------------------3-2-0---|
--------------7p-6-7---------|--------------------------------2-|
--2-----4-----6--------------|--7-------6-------4-------2-------|
----------------------7------|----------------------------------|
-----------------------------|----------------------------------|

  
--------------------4-5s-7-5p-4---0-|--5--0-----------------------|
--0h-2-3--3p-2-3----------------7---|--------2--0-----3---0-2-----|
------------------------------------|-------------2-2---6------2--|
--0------------------------0--------|-----------------------------|
----------4-------2-----------------|--4--0-----------------0--4--|
------------------------------------|--------2------4---6---------|

   
-----------------------------|----0-2--2--0--3--2--------|
-----------------------------|--3------------------------|
-------1-1-----1-2--------2--|---------------------2--0--|
--4----------4---------------|---------0-----------------|
-----2-----------0--2--0-----|------------4--2-----------|
--0------2----------------5--|--0------------------4-----|

  
--2---0--------------------|----0-2--2--0--3--2--------|
----3----------2--3--------|--3------------------------|
---------0--------------2--|---------------------2--0--|
------------4--------------|---------0-----------------|
---------0-----------------|---------------4-----------|
--5------------0-----4-----|--5------------------0-----|

  
--2---0-----------------0--|--2--4-----5----------------|
----3----------2--3--------|--------------3p-2-3-----3--|
---------0-----------------|----------------------------|
------------4--------------|--0-------------------0-----|
--2------4-----------4-----|--------4-----2-------------|
---------------0-----------|----------------------------|


--4--5-----7--0---0--------|-----------5--5-----3p-2-0---|
----------------3----------|---------------------------3-|
---------------------------|-----------------------------|
--------4--6---------0--2--|-----------------------------|
-----4--------0---4--------|--0-----0--2--4--0-----------|
---------------------------|-----6--------------0--------|

   
--0----------------0-2-0-3-2-0---|--2--0----------------------|
----3-2-0----0-2-3-------------3-|----------------------------|
----------2----------------------|-----------0h-2-0--------2--|
-------------------------0-------|--------4----------4--2-----|
--0------------------------------|-----0--2-------------0-----|
----------5------4---------------|--5-------------2--------5--|

   
----0-2--2--0--3--2--------|--2---0--------------------|
--3------------------------|----3----------2--3--------|
---------------------2--0--|---------0--------------2--|
---------------------------|------------4--------------|
---------------------------|---------0-----------------|
--0------0-----0-----4-----|--5------------0-----------|

  
----0-2--2--0--3--2--------|--2---0-----------------5--|
--3------------------------|----3----------2--3--------|
---------------------2--0--|---------0-----------------|
---------------------------|------------4--------------|
---------------------------|---------0-----------------|
--0------0-----0-----4-----|--5------------0-----------|

 
--5----3-2-0---0--------------|----0-2-0-3-2-0---2--0--------|
-------------3---3-2-0----0-2-|--3-------------3-------------|
-----------------------2------|---------------------------2--|
------------------------------|------------------------------|
-------2-------0--------------|------------------0-----4-----|
--4--------------------5------|--4-------0-------------------|

  
--2--4-----5----------------|--4--5-----7-------------10--|
--------------3p-2-3-----0--|-----------------------------|
----------------------------|--------------7p-6-7---------|
--0-------------------0-----|--2-----4-----6--------------|
--------4-----2-------------|----------------------7------|
----------------------------|-----------------------------|

  
-9p-7-5--5p-4-5----4-2-0---------|-------------------4-5s-7-5p-4---0-|
-------------------------3-2-0---|-0h-2-3--3p-2-3----------------7---|
-------------------------------2-|-----------------------------------|
-7-------6-------4-------2-------|-0------------------------0--------|
---------------------------------|---------4-------2-----------------|
---------------------------------|-----------------------------------|

  
--5--0-----------------------|-----------------------------|
--------2--0-----3---0-2-----|-----------------------------|
-------------2-2---6------2--|-------1-1-----1-2--------2--|
-----------------------------|--4----------4---------------|
--4--0-----------------0--4--|-----2-----------0--2--0-----|
--------2------4---6---------|--0------2----------------5--|

  
----0-2--2--0--3--2--------|--2---0--------------------|
--3------------------------|----3----------2--3--------|
---------------------2--0--|---------0--------------2--|
---------0-----------------|------------4--------------|
------------4--2-----------|---------0-----------------|
--0------------------4-----|--5------------0-----4-----|

   
----0-2--2--0--3--2--------|--2---0-----------------0--|
--3------------------------|----3----------2--3--------|
---------------------2--0--|---------0-----------------|
---------0-----------------|------------4--------------|
---------------4-----------|--2------4-----------4-----|
--5------------------0-----|---------------0-----------|

 
--2--4-----5----------------|--4--5-----7--0---0--------|
--------------3p-2-3-----3--|----------------3----------|
----------------------------|---------------------------|
--0-------------------0-----|--------4--6---------0--2--|
--------4-----2-------------|-----4--------0---4--------|
----------------------------|---------------------------|

 
-----------5--5-----3p-2-0---|--0----------------0-2-0-3-2-0---|
---------------------------3-|----3-2-0----0-2-3-------------3-|
-----------------------------|----------2----------------------|
-----------------------------|-------------------------0-------|
--0-----0--2--4--0-----------|--0------------------------------|
-----6--------------0--------|----------5------4---------------|

  
--2--0-------------------5--|--5----3-2-0---0--------------|
----------------------------|-------------3---3-2-0----0-2-|
-----------0h-2-0-----------|-----------------------2------|
--------4----------4--2-----|------------------------------|
-----0--2-------------0-----|-------2-------0--------------|
--5-------------2-----------|--4--------------------5------|

   
----0-2-0-3-2-0---2--0--------|--2--4-----5----------------|
--3-------------3-------------|--------------3p-2-3-----0--|
---------------------------2--|----------------------------|
------------------------------|--0-------------------0-----|
------------------0-----4-----|--------4-----2-------------|
--4-------0-------------------|----------------------------|

  
--4--5-----7-------------10--|--9p-7-5--5p-4-5----4-2-0---------|
-----------------------------|--------------------------3-2-0---|
--------------7p-6-7---------|--------------------------------2-|
--2-----4-----6--------------|--7-------6-------4-------2-------|
----------------------7------|----------------------------------|
-----------------------------|----------------------------------|

  
--------------------4-5s-7-5p-4---0-|--5--0-----------------------|
--0h-2-3--3p-2-3----------------7---|--------2--0-----3---0-2-----|
------------------------------------|-------------2-2---6------2--|
--0------------------------0--------|-----------------------------|
----------4-------2-----------------|--4--0-----------------0--4--|
------------------------------------|--------2------4---6---------|

  
-----------------------------|-----0-----2------------5--|
--------------------------2--|--3------------------------|
-------1-1-----1-2-----------|--------------2-0-2--------|
--4----------4---------------|---------------------------|
-----2-----------0--2--0-----|-----------4------------0--|
--0------2----------------5--|--4--2--0-----0---4--5-----|

  
--5-----3-2-0---0--------------|----0-2-0-3p-2-0---2--0--------|
--------------3---3-2-0----0-2-|--3--------------3-------------|
------------------------2------|-------------------------------|
--------0----------------------|-------------------------------|
--2--4----------0--------------|-------------------0--2--4--0--|
------------------------5------|--4-------0--------------------|

   
--------------7h-9-10--10--9--|--12--10-----0--10p-7-9--0-----|
--3--2--0--7--0---------0-----|----------7-----------------3--|
------------------------------|---0---------------------------|
--0--------8---------------7--|----------0--------------4-----|
------------------------------|-----------------7-------------|
------------------------------|-------------------------------|

  
--6--7-----2--2-----0-------|---------------------------0-------|
----------------------3-2-0-|--2-0-------------0h-2-3-2---3-2-0-|
--0-------------------------|------3------1h-3------------------|
-----4--2--1--2--0----------|--------6-4--2----0----------------|
--------------------4---2---|--1------------------------2-------|
----------------------------|------4----------------------------|

  
-----------------1--------|---------------1--2-----4--|
--3--2--------3--------7--|--0---0--------------------|
--------------------------|------------1--------------|
-----------4--------------|----7----------------0-----|
--------1-----2-----0-----|---------2-----4-----------|
--4-----------------------|--6------------------------|


------------7--5-4-2----1-2--|----0---------------------------|
--0---0----------------------|------3-2-0-----------0--0---0--|
----2------------------------|------------2-1---1-2------2----|
--3------------4------2------|--0-------------4---------------|
---------4-------------------|----------4-------2------0------|
-----------------------------|--------------------------------|

   
--------4----------------------|--------------------------|
----6-7---7-6-4---7------------|--------------0-----2-----|
----------4-----6----6---------|--------2--------------2--|
------------------------7--6-4-|--4-----------------------|
------------------0-----4--4---|-----------------------0--|
--6------------------4---------|--4--0--2--4--5--4--5-----|

  
----0-2--2--0--3--2--------|--2---0-----------------0--|
--3------------------------|----3----------2--3--3-----|
---------------------2--0--|---------0-----------------|
---------------0-----------|------------4--------------|
--2---0--2--4--------2-----|---------0-----2--0--2--4--|
---------------------------|--5------------------------|

 
--2-----0--5--5-----3-2-0---|--0----------------0-2-0-3-2-0---|
--------------------------3-|----3-2-0----0-2-3-------------3-|
------------------------0---|----------2----------------------|
--0-----0--2--4--2--4-------|---------------------------------|
-----4----------------------|--4-------0----------------------|
----------------------------|-------------5---4-------0-------|

   
--2--0--------7--9-----10--|-------------7--9--10-----12--|
---------------------------|--8p-7-8----------------------|
--2--0-----7--0------------|------------------------------|
---------------------------|----------0-------------------|
--------9-----------9------|--7-------------7------0------|
---------------------------|------------------------------|

  
--3p-2-3-----0--2-0-----------|----8-7-5-3p-2-0---0-2-3----2-3--|
--------------------3--3-2-3--|-----------------3---------------|
------------------------------|--0------------------------------|
-----------------------4------|------4---2----0----------2------|
--2-------------0-------------|-------------------4-------------|
----------5-------------------|---------------------------------|

  
-------0---------5-----2-0-----|---3-2-0-2---------------------------|
---2-3---3-2-0------3------3-2-|-3----------3--0----2-3p-2h-3p-2---3-|
---------------2---------------|-------------------------------------|
-------------------------------|---------0---------------------------|
-0---2---0----------2------0---|-2---4----------------0----------0---|
-------------5---4-----5-------|------------4--5--2------------------|

               
-------------------||
--3----------------||
--2----------------||
--4----------------||
-------------------||
--0----------------||

| /  slide up
| \  slide down
| h  hammer-on
| p  pull-off
| ~  vibrato
| +  harmonic
| x  Mute note
===========================================================================





Comments


Popular Johann Sebastian Bach tabs & chords
Arioso Tabs
Arioso 1 Tabs
Badinerie Tabs
Bwv 780 - Two-part Invention No 9 In Fm Tabs
Bwv 998 - Fugue Tabs
Cello Suite No 1 - Prelude Tabs
Little Fugue In Gm Bwv 578 Tabs
Prelude Bmv 999 Tabs
Prelude In Cm Tabs
Violin Sonata No.2 In B Minor Tabs


Song lyrics



↑ Back to top | Tablatures and chords are parodies/interpretations of the original songs. You may use it for private study, scholarship, research or language learning purposes only
© 2014 AZChords.com Contact us | Privacy policy | DMCA | Add/correct tabs | Request tabs | Top 50 tabs