>
 >
Prelude

Prelude Guitar Tabs

Johann Sebastian Bach - Prelude chords, tabs, tablatures, lyrics

Guitar lessons | Add/correct | Request | Top 50 tabs Artists:  A B C D E F G H I J K L M N O P Q R S T U V W X Y Z 0-9

Prelude Guitar Tabs – Johann Sebastian Bach

CD, Sheet music, Poster

Do you like Prelude? Share with your friends now
Tabs
Bach
Prelude 1




    S  S  S  S  S  S  S  S  S  S  S  S  S  S  S  S  
---------------12-------12-------------12-------12-|
------------13-------13-------------13-------13----|
---------12-------12-------------12-------12-------|
------14----------------------14-------------------|
---15----------------------15----------------------|
---------------------------------------------------|


   S  S  S  S  S  S  S  S  S  S  S  S  S  S  S  S  
--------------13-------13-------------13-------13-|
-----------15-------15-------------15-------15----|
--------14-------14-------------14-------14-------|
-----12----------------------12-------------------|
--15----------------------15----------------------|
--------------------------------------------------|


   S  S  S  S  S  S  S  S  S  S  S  S  S  S  S  S  
--------------13-------13-------------13-------13-|
-----------15-------15-------------15-------15----|
--------12-------12-------------12-------12-------|
-----12----------------------12-------------------|
--14----------------------14----------------------|
--------------------------------------------------|


   S  S  S  S  S  S  S  S  S  S  S  S  S  S  S  S  
--------------12-------12-------------12-------12-|
-----------13-------13-------------13-------13----|
--------12-------12-------------12-------12-------|
-----14----------------------14-------------------|
--15----------------------15----------------------|
--------------------------------------------------|


   S  S  S  S  S  S  S  S  S  S  S  S  S  S  S  S  
--------------17-------17-------------17-------17-|
-----------17-------17-------------17-------17----|
--------14-------14-------------14-------14-------|
-----14----------------------14-------------------|
--15----------------------15----------------------|
--------------------------------------------------|


   S  S  S  S  S  S  S  S  S  S  S  S  S  S  S  S  
--------------10-------10-------------10-------10-|
-----------10-------10-------------10-------10----|
--------11-------11-------------11-------11-------|
--10-12-------------------10-12-------------------|
--------------------------------------------------|
--------------------------------------------------|


   S  S  S  S  S  S  S  S  S  S  S  S  S  S  S  S  
--------------15-------15-------------15-------15-|
-----------15-------15-------------15-------15----|
--------12-------12-------------12-------12-------|
-----12----------------------12-------------------|
--14----------------------14----------------------|
--------------------------------------------------|


  S  S S S S S S S S  S S S S S S S    S  S S S S S S S S  S S S S S S S  
-----------8-----8----------8-----8-|-----------8-----8----------8-----8-|
---------8-----8----------8-----8---|---------8-----8----------8-----8---|
-------9-----9----------9-----9-----|-------9-----9----------9-----9-----|
--9-10-------------9-10-------------|--7-10-------------7-10-------------|
------------------------------------|------------------------------------|
------------------------------------|------------------------------------|


  S S S S S S S S S S S S S S S S     S S S S S S S S  S S S S S S S S  
----------8-----8---------8-----8-|-----------7-----7----------7-----7-|
--------7-----7---------7-----7---|---------8-----8----------8-----8---|
------7-----7---------7-----7-----|-------7-----7----------7-----7-----|
----7---------------7-------------|-----9----------------9-------------|
--5---------------5---------------|--10---------------10---------------|
----------------------------------|------------------------------------|


   S S S S S S S S  S S S S S S S S    S S S  S  S S  S  S S S S  S  S S  S  S  
-----------9-----9----------9-----9-|-----------10------10----------10------10-|
---------8-----8----------8-----8---|--------10------10----------10------10----|
-------9-----9----------9-----9-----|------7-------7-----------7-------7-------|
-----8----------------8-------------|----7-------------------7-----------------|
--10---------------10---------------|--8-------------------8-------------------|
------------------------------------|------------------------------------------|


  S S S S S S S S S S S S S S S S    S S S S S S S S S S S S S S S S  
----------7-----7---------7-----7-|----------8-----8---------8-----8-|
--------6-----6---------6-----6---|--------8-----8---------8-----8---|
------7-----7---------7-----7-----|------5-----5---------5-----5-----|
----6---------------6-------------|----5---------------5-------------|
--8---------------8---------------|--7---------------7---------------|
----------------------------------|----------------------------------|


  S S S S S S S S S S S S S S S S    S S S S S S S S S S S S S S S S  
----------1-----1---------1-----1-|----------1-----1---------1-----1-|
--------1-----1---------1-----1---|--------1-----1---------1-----1---|
------2-----2---------2-----2-----|------2-----2---------2-----2-----|
--2-3-------------2-3-------------|--0-3-------------0-3-------------|
----------------------------------|----------------------------------|
----------------------------------|----------------------------------|


  S S S S S S S S S S S S S S S S    S S S S S S S S S S S S S S S S  
----------1-----1---------1-----1-|----------0-----0---------0-----0-|
--------0-----0---------0-----0---|--------1-----1---------1-----1---|
------0-----0---------0-----0-----|------0-----0---------0-----0-----|
----0---------------0-------------|----2---------------2-------------|
----------------------------------|--3---------------3---------------|
--3---------------3---------------|----------------------------------|


  S S S S S S S S S S S S S S S S    S S S S S S S S S S S S S S S S  
----------0-----0---------0-----0-|----------0-----0---------0-----0-|
--------1-----1---------1-----1---|--------1-----1---------1-----1---|
------3-----3---------3-----3-----|------2-----2---------2-----2-----|
----5---------------5-------------|----3---------------3-------------|
--3---------------3---------------|----------------------------------|
----------------------------------|--1---------------1---------------|


  S S S S S S S S S S S S S S S S    S S S S S S S S S S S S S S S S  
----------------------------------|----------------------------------|
--------1-4---1-4-------1-4---1-4-|------0-1-3-0-1-3-----0-1-3-0-1-3-|
------2-----2---------2-----2-----|----------------------------------|
----------------------------------|----3---------------3-------------|
----3---------------3-------------|----------------------------------|
--2---------------2---------------|--4---------------4---------------|


  S S S S S S S S S S S S S S S S    S S S S S S S S S S S S S S S S  
----------------------------------|----------0-----0---------0-----0-|
--------0-3---0-3-------0-3---0-3-|--------1-----1---------1-----1---|
------0-----0---------0-----0-----|------0-----0---------0-----0-----|
----3---------------3-------------|----2---------------2-------------|
----------------------------------|----------------------------------|
--3---------------3---------------|--3---------------3---------------|


  S S S S S S S S S S S S S S S S    S S S S S S S S S S S S S S S S  
----------1-----1---------1-----1-|----------1-----1---------1-----1-|
--------1-----1---------1-----1---|--------0-----0---------0-----0---|
------0-----0---------0-----0-----|------0-----0---------0-----0-----|
----0---------------0-------------|----0---------------0-------------|
----------------------------------|----------------------------------|
--3---------------3---------------|--3---------------3---------------|


  S S S S S S S S S S S S S S S S    S S S S S S S S S S S S S S S S  
----------2-----2---------2-----2-|----------3-----3---------3-----3-|
--------1-----1---------1-----1---|--------1-----1---------1-----1---|
------2-----2---------2-----2-----|------0-----0---------0-----0-----|
----1---------------1-------------|----2---------------2-------------|
----------------------------------|----------------------------------|
--3---------------3---------------|--3---------------3---------------|


  S S S S S S S S S S S S S S S S    S S S S S S S S S S S S S S S S  
----------1-----1---------1-----1-|----------1-----1---------1-----1-|
--------1-----1---------1-----1---|--------0-----0---------0-----0---|
------0-----0---------0-----0-----|------0-----0---------0-----0-----|
----0---------------0-------------|----0---------------0-------------|
----------------------------------|----------------------------------|
--3---------------3---------------|--3---------------3---------------|


  This is where slight changes were made                                
  S                                      S S S S S S S S S S S S S S S  
-----------------------------------------------0-----0---------0-----0-|
-----------------------------------------------------------------------|
-------------------------------------------0-3---0-3-------0-3---0-3---|
-----------------------------------------2---------------2-------------|
--3----------------------------------------------------3---------------|
-----------------------------------------------------------------------|


  still sounds good                                
  S                 S S S S S S S S S S S S S S S  
----------------------------1---------------------|
--------------------1-----1---1---1---------------|
------------------------2-------2---2---2---------|
----------------------3---------------3---3-0-3-0-|
--3-----------------------------------------------|
--------------------------------------------------|


  S  S  S  S  S  S  S  S  S  S  S  S  S  S  S  S     W                  
-------------10-13-10----10----------------------|---8----------------||
----------12----------12----12----12-------------|---8----------------||
-------12----------------------12----------------|---9----------------||
-------------------------------------12-15-14-12-|--10----------------||
----15-------------------------------------------|--10----------------||
--7----------------------------------------------|---8----------------||




Duration Legend
---------------
W - whole
H - half
Q - quarter
E - 8th
S - 16th
T - 32nd
X - 64th
. - note dotted
|-n-|  - n-tuplets


Tablature Legend
----------------
L - tied note
x - dead note
g - grace note
(n) - ghost note
> - accentuded note
NH - natural harmonic
AH - artificial harmonic
TH - tapped harmonic
SH - semi harmonic
PH - pitch harmonic
h - hammer on
p - pull off
b - bend
br - bendRelease
pb - preBend
pbr - preBendRelease
brb - bendReleaseBend
\n/ - tremolo bar dip
\n - tremolo bar dive
-/n - tremolo bar Release up
/n\ - tremolo bar inverted dip
/n - tremolo bar return
-\n - tremolo bar Release down
S - shift slide
s - legato slide
/ -  slide into from below or out of upwards
\ -  slide into from above or out of downwards
~ - vibrato
W - wide vibrato
tr - trill
TP - tremolo picking
T - tapping
S - slap
P - pop
< - fade in
^ - brush up
v - brush down





Comments


Popular Johann Sebastian Bach tabs & chords
Air On A G String Tabs
Bwv 1011 - Sarabande Tabs
Bwv 596 - Organ Concerto In Dm Tabs
Bwv 999 - Prelude In Dm Tabs
Fugue In D Minor Tabs
Gavota 1 Bwv995 Tabs
Prelude - Lute Suite No1 Bwv 996 In E Minor Tabs
Sheep May Safely Graze Tabs
Toccata And Fugue In D Minor 1 Tabs
Toccata And Fugue In D Minor Intro Tabs


Song lyrics



↑ Back to top | Tablatures and chords are parodies/interpretations of the original songs. You may use it for private study, scholarship, research or language learning purposes only
© 2014 AZChords.com Contact us | Privacy policy | DMCA | Add/correct tabs | Request tabs | Top 50 tabs