>
 >
Cello Suite Prelude

Cello Suite Prelude Guitar Tabs

Johann Sebastian Bach - Cello Suite Prelude chords, tabs, tablatures, lyrics

Guitar lessons | Add/correct | Request | Top 50 tabs Artists:  A B C D E F G H I J K L M N O P Q R S T U V W X Y Z 0-9

Cello Suite Prelude Guitar Tabs – Johann Sebastian Bach

CD, Sheet music, Poster

Do you like Cello Suite Prelude? Share with your friends now
Tabs
 arranged for electric guitar

         S  S  S  S  S  S  S  S  S  S  S  S  S  S  S  S  
E||--------14-12-14----14----------14-12-14----14----|
B||--------------------------------------------------|
G||-----14----------14----14----14----------14----14-|
D||--12----------------------12----------------------|
A||--------------------------------------------------|
D||--------------------------------------------------|


   S  S  S  S  S  S  S  S  S  S  S  S  S  S  S  S  
--------15-14-15----15----------15-14-15----15----|
-----12----------12----12----12----------12----12-|
--------------------------------------------------|
--12----------------------12----------------------|
--------------------------------------------------|
--------------------------------------------------|


   S  S  S  S  S  S  S  S  S  S  S  S  S  S  S  S  
--------15-14-15----15----------15-14-15----15----|
-----14----------14----14----14----------14----14-|
--------------------------------------------------|
--12----------------------12----------------------|
--------------------------------------------------|
--------------------------------------------------|


   S  S  S  S  S  S  S  S  S  S  S  S  S  S  S  S  
--------14-12-14----14----------14-12-14----14----|
-----15----------15----15----15----------15----14-|
--------------------------------------------------|
--12----------------------12----------------------|
--------------------------------------------------|
--------------------------------------------------|


   S  S  S  S  S  S  S  S  S  S  S  S  S  S  S  S  
--------14-12-14----------------------------------|
-----12----------15-14-15-12-15-14-15-------------|
--------------------------------------11-14-13-11-|
--12----------------------------------------------|
--------------------------------------------------|
--------------------------------------------------|


   S  S  S  S  S  S  S  S  S  S  S  S  S  S  S  S  
--------12----12----12----------12----12----12----|
-----15----15----15----15----15----15----15----15-|
--14----------------------14----------------------|
--------------------------------------------------|
--------------------------------------------------|
--------------------------------------------------|


   S  S  S  S  S  S  S  S  S  S  S  S  S  S  S  S  
--------17-16-17----------------------------------|
--14-17----------17-15-17-14-17-15-17----14-12----|
--------------------------------------14-------14-|
--------------------------------------------------|
--------------------------------------------------|
--------------------------------------------------|


   S  S  S  S  S  S  S  S  S  S  S  S  S  S  S  S  
--------------------------------------------------|
--------15-14-15----15----------15-14-15----15----|
--------------------------------------------------|
-----16----------16----16----16----------16----16-|
--14----------------------14----------------------|
--------------------------------------------------|


   S  S  S  S  S  S  S  S  S  S  S  S  S  S  S  S  
-----------------------------------17-16-14-------|
-----------12-------------15-14-------------17-15-|
-----13-14----14-13-11----------16----------------|
-----------------------14-------------------------|
--14----------------------------------------------|
--------------------------------------------------|


   S  S  S  S  S  S  S  S  S  S  S  S  S  S  S  S  
-----------17----17-------------------------------|
--14----------17----14-17-------14-17-15-14-------|
-----16-14----------------14-16-------------16-14-|
--------------------------------------------------|
--------------------------------------------------|
--------------------------------------------------|


   S  S  S  S  S  S  S  S  S  S  S  S  S  S  S  S  
--------------------------14----------------------|
--16----------------16----------------------16----|
-----14-17-16-17-14----14----14-17-16-17-14----14-|
--------------------------------------------------|
--------------------------------------------------|
--------------------------------------------------|


   S  S  S  S  S  S  S  S  S  S  S  S  S  S  S  S  
--------12-14-15-12-------------12-14-15-12-------|
-----12-------------12-------12-------------14-12-|
--12-------------------14-12----------------------|
--------------------------------------------------|
--------------------------------------------------|
--------------------------------------------------|


   S  S  S  S  S  S  S  S  S  S  S  S  S  S  S  S  
--------------12----12----------------12----12----|
-----14----14----14----14----14----14----14----14-|
--15----15----------------15----15----------------|
--------------------------------------------------|
--------------------------------------------------|
--------------------------------------------------|


   S  S  S  S  S  S  S  S  S  S  S  S  S  S  S  S  
--------------------12----------------------------|
--15-14-12-15-14-15----14-15-14-12----------------|
-----------------------------------14-12-11-------|
--------------------------------------------14-12-|
--------------------------------------------------|
--------------------------------------------------|


   S  S  S  S  S  S  S  S  S  S  S  S  S  S  S  S  
--------------------------------------------------|
--------------------------------------------------|
--------14----14----14----------14----14----14----|
-----17----17----17----17----17----17----17----17-|
--16----------------------16----------------------|
--------------------------------------------------|


   S  S  S  S  S  S  S  S  S  S  S  S  S  S  S  S  
--------------------------------------------------|
--------------------------------------------------|
--------17-16-17----17----------17-16-17----17----|
-----16----------16----16----16----------16----16-|
--17----------------------17----------------------|
--------------------------------------------------|


   S  S  S  S  S  S  S  S  S  S  S  S  S  S  S  S  
--------------------------------------------------|
--------12----12----12----------12----12----12----|
-----12----14----12----12----12----14----12----12-|
--12----------------------12----------------------|
--------------------------------------------------|
--------------------------------------------------|


   S  S  S  S  S  S  S  S  S  S  S  S  S  S  S  S  
--------15-14-15----15----------15-14-15----15----|
-----14----------14----14----14----------14----14-|
--------------------------------------------------|
--12----------------------12----------------------|
--------------------------------------------------|
--------------------------------------------------|


   S  S  S  S  S  S  S  S  S  S  S  S  S  S  S  S  
--------14-12-14----------------------------------|
-----------------15-14-12-------------------------|
-----14-------------------14-12-11----------------|
--12-------------------------------14-12-11-------|
--------------------------------------------14-12-|
--------------------------------------------------|


   S  S  S  S  S  S  S  S  S  S  S  S  S  S  S  S  
--------------------------------------------------|
--------12-14-15-12-14-15-------12-14-15-12-14-15-|
--------------------------------------------------|
-----14----------------------14-------------------|
--11----------------------11----------------------|
--------------------------------------------------|


   S  S  S  S  S  S  S  S  S  S  S  S  S  S  S  S  
--------------------------------------------------|
-----------12-14----12-14----------12-14----12-14-|
--------14-------14-------------14-------14-------|
-----14----------------------14-------------------|
--10----------------------10----------------------|
--------------------------------------------------|


   S  S  S  S  S  Q     S  S  S  S  S  S  S  
--------------16-17-------------------------|
-----------14-------------------------14-15-|
--------14----------------------14-16-------|
-----14----------------14-16-17-------------|
--10----------------------------------------|
--------------------------------------------|


   S  S  S  S  S  S  S  S  S  S  S  S  S  S  S  S  
-----------------------14-15-------------14-15-17-|
--17-14-------14-15-17-------17-14-15-17----------|
--------14-16-------------------------------------|
--------------------------------------------------|
--------------------------------------------------|
--------------------------------------------------|


   S  S  S  S  S  S  S  S  S  S  S  S  S  S  S  S  
--18-17-16-17-17-15-14-15-15----------------------|
-----------------------------17-14----------------|
-----------------------------------16-14----------|
-----------------------------------------14-16-17-|
--------------------------------------------------|
--------------------------------------------------|


   S  S  S  S  S  S  S  S  S  S  S  S  S  S  S  S  
--------------12-14-15-12-14----------------------|
-----------14----------------15-------------------|
--------14----------------------14-12-11-------11-|
-----14----------------------------------12-14----|
--12----------------------------------------------|
--------------------------------------------------|


   S  S  S  S  S  S  S  S  S  S  S  S  S  S  S  S  
-----------------12-14----16-13-12-13-13-12-11-12-|
--------------15-------15-------------------------|
--------11-14-------------------------------------|
-----12-------------------------------------------|
--12----------------------------------------------|
--------------------------------------------------|


   S  S  S  S  S  S  S  S  S  S  S  S  S  S  S  S  
--12----------------------------------12-16-17-16-|
-----15-14-15-15-12-------------12-15-------------|
--------------------13-11----13-------------------|
--------------------------14----------------------|
--------------------------------------------------|
--------------------------------------------------|


   S  S  S  S  S  S  S  S  S  S  S  S  S  S  S  S  
--17----------------------------------------------|
-----17-14----14-17----14-------------------------|
-----------16-------14-------14-13----------------|
--------------------------14-------16-14----------|
-----------------------------------------17-16-14-|
--------------------------------------------------|


   E   S  S  S  S  S  S  S  S  S  S  S  S  S  S  
------15-14-12-------------15-14-12-------------|
---------------15-14-12-------------15-14-12----|
------------------------14-------------------14-|
------------------------------------------------|
--12--------------------------------------------|
------------------------------------------------|


   E   S  S  S  S  S  S  S  S  S  S  S  S  S  S  
------14-------------------12-------------------|
---------15-14-12-------------15-14-12----------|
--12--------------14-12-11-------------14-12-11-|
------------------------------------------------|
------------------------------------------------|
------------------------------------------------|


   S  S  S  S  S  S  S  S  S  S  S  S  S  S  S  S  
-----------------12----12----12----12----12----12-|
-----15-14-12-14----------12----14----15----12----|
--------------------14----------------------------|
--14----------------------------------------------|
--------------------------------------------------|
--------------------------------------------------|


   S  S  S  S  S  S  S  S  S  S  S  S  S  S  S  S  
-----12----12----12----12----12----12----12----12-|
--14----------15----12----14----------15----12----|
--------14----------------------14----------------|
--------------------------------------------------|
--------------------------------------------------|
--------------------------------------------------|


   S  S  S  S  S  S  S  S  S  S  S  S  S  S  S  S  
-----12----12----12----12----12----12-14-12-17-12-|
--14----------12----14----15----17----------------|
--------14----------------------------------------|
--------------------------------------------------|
--------------------------------------------------|
--------------------------------------------------|


   S  S  S  S  S  S  S  S  S  S  S  S  S  S  S  S  
-----12-14-12-15-12-17-12-14-12-15-12-17-12-15-12-|
--17----------------------------------------------|
--------------------------------------------------|
--------------------------------------------------|
--------------------------------------------------|
--------------------------------------------------|


   S  S  S  S  S  S  S  S  S  S  S  S  S  S  S  S  
--14-12-15-12-14-12----12-14-12----12-14-12----12-|
--------------------17----------17----------15----|
--------------------------------------------------|
--------------------------------------------------|
--------------------------------------------------|
--------------------------------------------------|


   S  S  S  S  S  S  S  S  S  S  S  S  S  S  S  S  
-----12----12----12----12----12----12----12----12-|
--17----15----17----14----15----14----15----------|
--------------------------------------------16----|
--------------------------------------------------|
--------------------------------------------------|
--------------------------------------------------|


            T    T    T    T     T     T     T     T     T     T     T     T    
   S  S  E  T  T T  T T  T T  T  T  T  T  T  T  T  T  T  T  T  T  T  T  T  T  T 
------------8p-5-8p-5-9p-5-9p-5-10p-5-10p-5-11p-5-11p-5-12p-5-12p-5-13p-5-13p-5-
--15-14-------------------------------------------------------------------------
--------14----------------------------------------------------------------------
--------------------------------------------------------------------------------
--------------------------------------------------------------------------------
--------------------------------------------------------------------------------


   T     T     T     T     T     T     T     T     T     T     T     T     T    
   T  T  T  T  T  T  T  T  T  T  T  T  T  T  T  T  T  T  T  T  T  T  T  T  T  T 
--14p-5-14p-5-16p-5-16p-5-17p-5-17p-5-18p-5-18p-5-19p-5-19p-5-20p-5-20p-5-21p-5-
--------------------------------------------------------------------------------
--------------------------------------------------------------------------------
--------------------------------------------------------------------------------
--------------------------------------------------------------------------------
--------------------------------------------------------------------------------


   S  S  S  S  S  S  S  S  S  S  S  S  S  S  S  S  
--22----------22----22----22----------22----22----|
-----19----19----19----19----19----19----19----19-|
--------------------------------------------------|
--------19----------------------19----------------|
--------------------------------------------------|
--------------------------------------------------|


   S  S  S  S  S  S  S  S  S  S  S  S  S  S  S  S  
--22----------22----22----22----------22----22----|
--------------------------------------------------|
-----21----21----21----21----21----21----21----21-|
--------19----------------------19----------------|
--------------------------------------------------|
--------------------------------------------------|


   S  S  S  S  S  S  S  S  S  S  S  S  S  S  S  S    S S E  S S  E   H          
--21----------21----21----21----------21----21----|-------------10---L--------||
-----20----20----20----20----20----20----20----20-|-----------x---------------||
--------------------------------------------------|---------7-L--L---L--------||
--------19----------------------19----------------|------0--L-L--L---L--------||
--------------------------------------------------|----0-L--L-L--L---L--------||
--------------------------------------------------|--0-L-L--L-L--L---L--------||




Duration Legend
---------------
W - whole
H - half
Q - quarter
E - 8th
S - 16th
T - 32nd
X - 64th
. - note dotted
|-n-|  - n-tuplets


Tablature Legend
----------------
L - tied note
x - dead note
g - grace note
(n) - ghost note
> - accentuded note
NH - natural harmonic
AH - artificial harmonic
TH - tapped harmonic
SH - semi harmonic
PH - pitch harmonic
h - hammer on
p - pull off
b - bend
br - bendRelease
pb - preBend
pbr - preBendRelease
brb - bendReleaseBend
\n/ - tremolo bar dip
\n - tremolo bar dive
-/n - tremolo bar Release up
/n\ - tremolo bar inverted dip
/n - tremolo bar return
-\n - tremolo bar Release down
S - shift slide
s - legato slide
/ -  slide into from below or out of upwards
\ -  slide into from above or out of downwards
~ - vibrato
W - wide vibrato
tr - trill
TP - tremolo picking
T - tapping
S - slap
P - pop
< - fade in
^ - brush up
v - brush down





Comments


Popular Johann Sebastian Bach tabs & chords
Toccata And Fugue Bass Tabs
Air On A G String Tabs
Arioso 1 Tabs
Bwv 1034 - Allegro Tabs
Bwv 1079 - Canon A 2 Tabs
Bwv 775 - Two-part Invention No 4 In Dm Tabs
Bwv 780 - Two-part Invention No 9 In Fm Tabs
Chorale Tabs
Fugue In A Minor Tabs
Fugue In D Minor Tabs


Song lyrics



↑ Back to top | Tablatures and chords are parodies/interpretations of the original songs. You may use it for private study, scholarship, research or language learning purposes only
© 2014 AZChords.com Contact us | Privacy policy | DMCA | Add/correct tabs | Request tabs | Top 50 tabs