» » »

Cello Suite No 1 Minuet 1 Bass tabs (ver.1)

Artists:  A B C D E F G H I J K L M N O P Q R S T U V W X Y Z # 

Cello Suite No 1 Minuet 1 Bass tabs (ver.1)

Johann Sebastian Bach
Rating:
0/5 (0 votes)

Hard to play? Try these video lessons and learn fast.
                "(2)
#Minuet I#

G|--------4-----------4-5-|4-----------------------|--------5-----------7---|
D|----------------7-------|----7---5---4---5-------|----5-------7---4-------|
A|----5-------------------|--------------------5---|7-----------------------|
D|5-----------------------|------------------------|------------------------|
   #Trill the 2-4 here#
G|4-------24------2-------|--------5-------4---5-7-|5---4-------------------|
D|----------------0-------|----4-------------------|--------7---5---4-------|
A|5-----------------------|------------------------|--------------------7---|
D|5-----------------------|7-----------------------|------------------------|

G|------------------------|------------------------ ||
D|4---5-7-5---4-------4---|------------------------.||
A|----------------7-------|5-----------------------.||
D|------------------------|--------7-------0------- ||

G|| ----------------------4-|------------------------|----------------4---7---|
D||.0---4---7-------5---7---|7---5---4---------------|--------6---7-----------|
A||.------------------------|------------7---5---9---|----5-------------------|
D|| ------------------------|------------------------|9-----------------------|

G|----7---5---4---5-------|------------5---4-------|4---------------5--4----|
D|------------------------|----4---7-----------7---|------------7-----------|
A|------------------------|6-----------------------|----7-------------------|
D|7-----------------------|------------------------|--------5---------------|

G|------------------------|------------------------|------------------------|
D|7---5---4---------------|------------------------|--------5-----------2-3-|
A|------------7---2---6---|------------7---5---3---|2---5-----------5-------|
D|------------------------|2-----------------------|------------------------|

G|------------------------|--------2---------------|------------------------|
D|3-------2---------------|----2-----------2---4-5-|5-------4---------------|
A|----5-------3---3---2---|4-----------------------|----7-------5-----------|
D|------------------------|------------------------|----------------0---7---|

G|------------5---4---7---|--------4---7---5---9---|7-----------------------|
D|----4---7---------------|----5-------------------|----4---5----------4----|
A|5-----------------------|7-----------------------|------------2-----------|
D|------------------------|------------------------|----------------0-------|

G|------------------------ ||
D|5-----------------------.||
A|------------------------.||
D|5----------------------- ||

#Minuet II#

G|3---2---3---------------|--------2---------------|------------------------|
D|------------------------|----------------0-------|5---4---5---------------|
A|------------5---6-------|------------------------|------------1---3-------|
D|--------------------5---|3-----------------------|--------------------2---|

G|--------------------2---|3---2---3---------------|--------2---------------|
D|------------5---4-------|------------------------|----------------0-------|
A|----0---5---------------|------------5---6-------|------------------------|
D|0-----------------------|--------------------5---|3-----------------------|

G|------------------------|------------------------ ||
D|5---4---5---------------|----5---4~--------------.||
A|------------1---3-------|------------------------.||
D|--------------------2---|0----------------------- ||

G|| ------------5---8---7---|5-----------------------|--------0---3---7---5---|
D||.----4---7---------------|----8---7---8---5-------|----2-------------------|
A||.5-----------------------|------------------------|3-----------------------|
D|| ------------------------|------------------------|------------------------|

G|3---2-------3-----------|--------3---2---3-------|--------------------7---|
D|--------5-------3---1---|0---3---------------0---|----5---8---7---8-------|
A|------------------------|------------------------|6-----------------------|
D|------------------------|------------------------|------------------------|

G|5---8---7---------------|3-----------------------|------------1---0-------|
D|------------8-------7---|----3---0---3-----------|----0---3-----------3---|
A|----------------8-------|----------------1-------|2-----------------------|
D|------------------------|------------------------|------------------------|

G|----0---5---7---8-------|------------------------|--------3---5---7-------|
D|1-----------------------|------------5---3---2---|0---3-------------------|
A|------------------------|0---3---6---------------|------------------------|
D|------------------------|------------------------|------------------------|

G|------------------------|------------2---3-------|----3---2---------------|
D|------------1---0-------|----0---5-----------5---|------------5---0---4---|
A|----0---3-----------3---|1-----------------------|3-----------------------|
D|4-----------------------|------------------------|------------------------|

G|------------------------ ||
D|------------------------.||
A|------------------------.||
D|5~---------------------- ||
"            
Hard to play? Try these video lessons and learn fast. | Correct




comments powered by Disqus
↑ Back to top | Tablatures and chords are parodies/interpretations of the original songs. You may use it for private study, scholarship, research or language learning purposes only