>
 >
Bwv 998 - Fugue

Bwv 998 - Fugue Guitar Tabs

Johann Sebastian Bach - Bwv 998 - Fugue chords, tabs, tablatures, lyrics

Guitar lessons | Add/correct | Request | Top 50 tabs Artists:  A B C D E F G H I J K L M N O P Q R S T U V W X Y Z 0-9

Bwv 998 - Fugue Guitar Tabs – Johann Sebastian Bach

CD, Sheet music, Poster

Do you like Bwv 998 - Fugue? Share with your friends now
Tabs
Fuga from Suite in Eb (BWV998)



|------|0-------|--------2-0---|--3-2-0-------0-|----0---5-------|
|3-2-3-|----0-2-|3---2-3-----3-|2-------3-2-0---|2-0---------4---|
|------|--2-----|--2-------0---|2-----------1---|2---2-0---5-4-2-|
|------|--------|------4-------|----0---4-------|--------4-------|
|------|--------|--------------|----------------|----------------|
|------|--------|--------------|----------------|----------------|


|
|0---0-2-3-------|--0-2-4-5-0-----|----------7-5-3-|2-0---3---0-----5---|
|--0-------0-2---|3---------2-3-2-|0-----2-3-------|----3---2---3-2---1-|
|0-----------2-0-|------------4-2-|1-----2---------|2---4---2---------2-|
|------4-2-------|4---0-------0---|2-4-2---4---2---|0---5-----------4---|
|----------------|--------4-------|----0---2---4---|--------------------|
|----------------|----------------|----------------|--------------------|



|----------3-2-0-5-0-------7-|7-5-----3-3-2-----|----2---3---5---|
|0-------------------3-2-0---|----0-2-5-5-3---3-|3-2---3-1-0---3-|
|0-----------------------1-7-|7-6---------------|------------2---|
|--4-2-0-2-------4-----------|7---------------4-|4-2-0-----------|
|----------------------------|------0-----------|0---------------|
|----------------------------|----------2---3---|--------0---2---|



|5-3-----------0-|0-----0-------0-|----0-----5-3-2-|0-----2-----0---|
|--0-------------|--4-----3-2-0---|3-2---3-------3-|2-3-2---3-------|
|5-----2-2-0---0-|0---1---2-------|4-2-0-----------|--4-4-2-0-----2-|
|------4-4-2-----|--4-------------|----0-4-2---0---|----------4-2---|

|------------0---|2---------------|0-------4-------|----0---2---4---|
|3-------3-------|----0---2---3---|----------------|0---------------|



|0---------------|--0-----------1-|1-2---0-0-----2-|2-3---2-2-0-----|
|--3---1-1-0---4-|4-----3-3-2---0-|0-----2-2-3---1-|1-0-----------3-|
|0-----2-2-0---2-|2-0---4-4-2-----|--3-------4-----|------2-2-0-----|
|0-4-------------|----------------|----------------|--------------4-|
|----------------|--------0-------|----1---2---0---|----------------|
|----2---3---2---|0---4-------3---|2---------------|3---3---3---3---|



|----5---2---3---|5-------0---2---|3-----3-2-7-5-3-|3-2-0-2---3---5---|
|3-2-------3-1-0-|----3-----------|----------0---2-|2-3-----3-3-------|
|----------------|2-5-4-2-0---2---|4-----2-2---0---|2-----------5---5-|
|4-2-----0-------|----------------|2-0-2---4---2---|4-----0-----------|
|0-0-2-4-----0---|----------3-2-0-|----4---5-------|------------------|
|----------7---3-|2---3-----------|----------------|----------0---2---|



|------3-3-2---2-|2-0---5-5-3---3-|3-2---0-0-----0-2-3-|--------5-3-2-0-|
|3-0---5-5-3-0-3-|3-2---7-7-5---5-|5-3---2-2-3-0-------|3-2-0---3-0-3-2-|
|5---0---2---1---|2-6-------------|----0---2-----------|------2-2---2-0-|
|----2---4-------|--------0---2---|4-------------------|2-------0-------|
|----------------|----4-------4---|5-------------------|------------0-0-|
|3---------------|----5---7-------|----0---2---3-------|--------2-3-----|



|--------------------------|--------------------------------|
|3---------0---------0---0-|------------------0---0---2---2-|
|2---2---2---0---0-----0---|2---------2-2-2-2---2---0---0---|
|4-0---4-------0---0-------|--4-0-4-------------------------|
|5-------------------------|------------------------0-------|
|--------------------------|--------2-------3---------------|


|
|--------------------------0---0-|--2---2-5-3-2-0-------2-0-------|
|--3---3---2---2---3---3---------|----3-----------3-2-3-----3-2-0-|
|--------0---2-------2---0---2---|2-----------------------1-------|
|4---4---2-------4---------------|4-------0-------4---------------|
|5---------------5-------4-------|5---------------2---------------|
|--------------------------------|--------2---------------0-------|




|----------0---0-2---------2---2-|0---------0-0-0-0-2-0-2---4---4|
|2-----------2-----3---3-----3---|--2---2-----------------3---3--|
|--2-----------------2-----------|----2--------------------------|
|----2---------------------------|----------------0-------2------|
|0-----4-0---------------0-------|--------4----------------------|
|--------------------------------|-------------------------------|



|--5---5-----0-----5---5---7---7-|--9---9-109-7---------7-5-----0-|
|----------8---8-----5-------9---|----10--------108-7-8-----8-7---|
|6---6---7-------6-------7-------|9-----------------------6-------|
|--------------------------------|----------------9---------------|
|0---------------0---------------|0-------9-------7-------0-------|
|--------------------------------|--------------------------------|



|2---------2---2---3---3---5---5-|----0-2-3-2-0-3-0-5---5---7---7-|
|--3---------3---3---3-----------|0-3-----------------5-----------|

|----2-------------------5---5---|------------------------7---7---|
|0-----4-0-----------------------|--------------------------------|
|--------------------------------|--------------------------------|
|----------------0-------2-------|3-------0-------2-------4-------|



|--0-2-3-2-0-------5-7-8-7-5-----|0-9--9---10--10--107-10--108-10|
|2-----------3-2-3-----------8-7-|----8--6---10--8-------10------|
|--------2---------------0-------|-------------------------------|
|----------------4---------------|7------0-----------------------|
|0-------------------------------|---------------7-------9-------|
|--------------------------------|-------------------------------|



|--7-5-7---7---7---7---7---7---7-|--5-3-5-2-5---5---5---5---5-2-5|
|--------8---7---5-------5---8---|------------5---4---2---4------|
|0---------------5---8-----------|----------------4--------------|
|--------------------------------|4------------------------------|
|--------------------------------|-------------------------------|
|--------------------------------|-------------------------------|



|3-2-0---------------------------|0-3-2-0------------------------|
|------3-2-3-2-3-2-3-2-3-2-3-2-3-|2-------3-2-0------------------|
|--------4-------3-------4-------|--------------2-1-------3-0----|
|2-------3-------4-------5-------|--------4---------4-2-0-----4-2|
|--------------------------------|1-------2---------------4------|
|--------------------------------|----------------0-------2------|



|------------------0---0---2---2-|--------0-----------0-2-4------|
|0---------3-0-3-0---0-----------|--0-2-3---0---0---2-------3-0-3|
|------------------------2---2---|1-----------1---2--------------|
|--2-0-------------------0-------|2-------0----------------------|
|2-----4-2-------4---------------|----------------4-------2------|
|--------------------------------|-------------------------------|



|--0---7-9-----0-------9-7---0---|----4-7-5-------------5--------|
|----10----107-----7-10----9---3-|2-6-------7---------7---9-6---0|
|6---------------8---------------|2-----------7-6-5-8---------6--|
|-------7---------------6--------|--------4----------------------|
|0---------------9---------------|----------------6-------8------|
|--------------------------------|-------------------------------|



|----1-4-2---------2---2---2---2-|--2---2---2-1-2---2---2--------|
|--2-------3-0-------------------|0---0---2-------3---0-----6---6|
|3-------------2-1---1---2---2---|-------------------------------|
|4-------0-----------------------|0-----------------------6---6--|
|----------------2-------4-------|--------0-------2-------4------|
|--------------------------------|-------------------------------|



|--5-3-5-2-5---5---5---5-2-5---5-|--5-3-2-0-----------0-------0--|
|------------5---4---5-------0---|----------3-1-0-1-4-----------4|
|--------------------------------|----------------------0---2----|
|4-----------------------1-------|2-----------------------4------|
|--------0-------2---------------|----------------0-------2------|
|2-------------------------------|--------3----------------------|




|--3-2-3-0-3---3---3---3-0-3---3-|--3-2-0-----------------------3|
|------------3---2---3-----------|--------3-1-0---0-2-3-----3-2--|
|----------------------------2---|--------------2----------------|
|2-------------------------------|0---------------------4-2------|
|----------------0-------4-------|------------------------0------|
|0-------3-----------------------|--------2-------3--------------|



|2-------------------------------|-------------------------------|
|--3-----------0-1-------------0-|1-------------0-1---------1-0--|
|----2-------2-----2---------2---|--2---------2-----2-----------2|
|0-----4-0-4-----0---4-2-0-4-----|----4-2-1-4-----1---4-2-1------|
|--------------------------------|0-----------------------2------|
|------------------------2-------|--------2----------------------|



|--0-----------------------------|-------------------------------|
|----0-------0-2-3-0---------0-2-|3-0---------0-2-3-0-------3-2-0|
|0-----0---0---------1-----1-----|----1-----1---------1----------|
|2-------2-------------4-2-------|------4-3-------3-----4-3------|
|--------------------------------|2-----------------------4------|
|----------------0-------4-------|--------4----------------------|



|--2-----------------------------|--------------------------0----|
|----2-------1-3-4-1---------1-3-|4-1---------1-3-4-1---------3-1|
|2-----2---2---------2-0---2-----|----2-0---2---------2-0--------|
|4-------4---------------4-------|--------4-------4-------4------|
|------------------------0-------|3-------0---------------5------|
|----------------2---------------|-------------------------------|



|--------------------------------|0------------------------------|
|0-------3-------2-------3-------|------------0-1-0---------2-0-2|
|0-2-0---------------------------|0-2-0-2---2-------2-0----------|
|------4-2-4-2-4-2-4-2-4-2-4-2-4-|--------4-------------4-2------|
|----------------0-------2-------|4-------5---------------0------|
|--------4-----------------------|----------------3--------------|



|--------------------------------|----------5---5---5---5---3---3|
|3---------------0---------0---0-|----------------0---0---2---2--|
|--2---2---2---2---0---0-----0---|2-----------2------------------|
|0---4---0---4-------0---0-------|--4-0-4------------------------|
|--------------------------------|------------------------0------|
|--------------------------------|--------2-------3--------------|



|2---------2-2-0-----|------5-5-4-----|------0---0-2--------2---2|
|--3-------3-3-2---2-|2-3-------0---3-|3-2-----2----3---3-----3--|
|----2-------2-----0-|0-----6-6-----1-|1-2-2----------2----------|
|0-----4-0-----------|0-4-0-----------|--------------------------|
|----------------0---|--------7-------|0------------------0------|
|--------------------|------------0---|--------------------------|



|0---------0---0---0---0---------|------------------4-|4-5---3-3-2-----|
|--2---2-------------------3---3-|2---------2-2-0---3-|3-----5-5-3---4-|
|----2-------------------1---1---|--2-------2-2-1-----|--6-----------2-|
|------------2---4---4-----------|----2-------2-------|----------------|
|--------4-------5---------------|0-----4-0-----------|0-------2---2---|

|------------------------0-------|----------------0---|----6-----------|



|--0-0-3---3---3---3---2---2-|--2---2-0-3-0-3-0-2-0-2---2---2-|
|4-------3---2-------3---2---|0-------2---0-----------3---3---|
|2-0-------------2-----------|----0-----------3-------4---2---|
|----------------------------|--------------------4-----------|
|----------------------------|--------------------------------|
|0---------------------------|--------------------------------|



|--0---0---0-2-3-5---5-------0-2-|3---3---3-----2-0-|
|3---3---2---------------0-3-----|----5---5---------|
|1-------2---0-----5---5-0-------|----4---2---------|
|----2-----------4---0-------4---|2-0-0-------------|
|--------------------------------|------4-4-2-4-0---|
|--------------------------------|------------------|



|2-4-2-4-4---5-5---------------|0-------------------------------|
|----------------------3-------|------------0-1-0-------------2-|
|--------------6-2-1-2---2-1-2-|--0-------2-------2-0-----0-2---|
|0-----------------------------|----4-2-4-------------4-2-------|
|----4---2-----0---------------|4-------5---------------0-------|
|----------0-----------2-------|----------------3---------------|



|--------------2-0---|--3-2-0-------0-|----0---5-------|0---0-2-3-------|
|3---------2-3-----3-|2-------3-2-0---|2-0---------4---|--0-------0-2---|
|--2-----2-------0---|2-----------1---|2---2-0---5-4-2-|0-----------2-0-|
|0---4-0-----4-------|----0---4-------|--------4-------|------4-2-------|
|--------------------|----------------|----------------|----------------|
|--------------------|----------------|----------------|----------------|



|--0-2-4-5-0-----|----------7-5-3-|2-0---3---0-----5---|
|3---------2-3-2-|0-----2-3-------|----3---2---3-2---1-|
|------------4-2-|1-----2---------|2---4---2---------2-|
|4---0-------0---|2-4-2---4---2---|0---5-----------4---|
|--------4-------|----0---2---4---|--------------------|
|----------------|----------------|--------------------|



|----------3-2-0-5-0-------7-|
|0-----------------------0---|
|0-------------------7-6---7-|
|--4-2-0-2-------4-------6---|
|----------------------------|
|----------------------------|



|7-5-----3-3-2-----|----2---3---5---|5-3-----------0-|0-----0-------0-|
|----0-2-5-5-3---3-|3-2---3-1-0---3-|--0-------------|--4-----3-2-0---|
|7-6---------------|------------2---|5-----2-2-0---0-|0---1---2-------|
|7---------------4-|4-2-0-----------|------4-4-2-----|--4-------------|
|------0-----------|0---------------|----2-------0---|2---------------|
|----------2---3---|--------0---2---|3---7---3-------|----0---2---3---|



|----0-----5-3-2-|0-----2-----0---|0---------------|--0-----------1-|
|3-2---3-------3-|2-3-2---3-------|--3---1-1-0---4-|4-----3-3-2---0-|
|4-2-0-----------|--4-4-2-0-----2-|0-----2-2-0---2-|2-0---4-4-2-----|
|----0-4-2---0---|----------4-2---|0-4-------------|----------------|
|0-------4-------|----0---2---4---|----------------|--------0-------|
|----------------|0---------------|----2---3---2---|0---4-------3---|



|1-2---0-0-----2-|2-3---2-2-0-----|----5---2---3---|5-------0---2---|
|0-----2-2-3---1-|1-0-----------3-|3-2-------3-1-0-|----3-----------|

|--3-------4-----|------2-2-0-----|----------------|2-5-4-2-0---2---|
|----------------|--------------4-|4-2-----0-------|----------------|
|----1---2---0---|----------------|0-0-2-4---2-0---|----------3-2-0-|
|2---------------|3---3---3---3---|--------------3-|2---3-----------|




|3-----3-2-7-5---|3-2-0-2---3---5---|------3-3-2---2-|2-0---5-5-3---3-|
|----------0---8-|2-3-----3-3-------|3-0---5-5-3-0-3-|3-2---7-7-5---5-|
|4-----2-2---0-6-|2-----------5---5-|5---0---2---1---|2---------------|
|2-0-2---4-------|4-----0-----------|----2---4-------|--------0---2---|
|----4---5---7---|------------------|----------------|----4-------4---|
|----------------|----------0---2---|3---------------|----5---7-------|



|3-2---0-0-----0-2-3-|--------5-3-2-0-|--|
|5-3---2-2-3-0-------|3-2-0---3-0-3-2-|3-|
|----0---2-----------|------2-2---2-0-|2-|
|4-------------------|2-------0-------|4-|
|5-------------------|------------0-0-|5-|
|----0---2---3-------|----------3-----|--|





Comments


Popular Johann Sebastian Bach tabs & chords
Cello Suite No 1 In G Maj Bass Tabs
Aria Goldberg Tabs
Brandenburg Concerto No 5 Tabs
Bwv 1012 Gavotte 1 And 2 Tabs
Bwv 1056 - Largo Tabs
Bwv 1068 Air On The G String Tabs
Bwv 1080 - Contrapunctus Xii Canon Alla Ottava Tabs
Bwv 997 Prelude Tabs
Menuet In G Tabs
Prelude Tabs


Song lyrics



↑ Back to top | Tablatures and chords are parodies/interpretations of the original songs. You may use it for private study, scholarship, research or language learning purposes only
© 2014 AZChords.com Contact us | Privacy policy | DMCA | Add/correct tabs | Request tabs | Top 50 tabs