>
 >
Bwv 595

Bwv 595 Guitar Tabs

Johann Sebastian Bach - Bwv 595 chords, tabs, tablatures, lyrics

Guitar lessons | Add/correct | Request | Top 50 tabs Artists:  A B C D E F G H I J K L M N O P Q R S T U V W X Y Z 0-9

Bwv 595 Guitar Tabs – Johann Sebastian Bach

CD, Sheet music, Poster

Do you like Bwv 595? Share with your friends now
Tabs
BWV 595 - FOR ELECTRIC GUITAR
                      As recorded by Johann Sebastian Bach
                    (From the 2003 Album BERÜHMTE ORGELWERKE)

Words and Music by Johann Sebastian Bach
Arranged by Johann Sebastian Bach
 

Gtr I (E A D G B E) - 'Track 1'

  Q=90
 4/4
  Gtr I
   E  S  S  E  E  E  E  E  E    E  S  S  E  S  S  S  S  S  S  S S  E
|----12-------12----15----15-|-12-12-13-15-13-12-12-12-12-12------15-|
|-13----15-13----15----------|-------------------------------15------|
|----------------------12----|---------------------------------------|
|----------------------------|---------------------------------------|
|----------------------------|---------------------------------------|
|----------------------------|---------------------------------------|


   S  S  S  S  S  S  S  S  S  S  S  S  S  S  S  S
|-------------------------------------------------|
|-17-------------------------18-17-18----18-17-18-|
|-------------------------14----------17----------|
|----17-15-17-14-17-15-17-------------------------|
|-------------------------------------------------|
|-------------------------------------------------|


   S  S  S  S  S  S  S  S  S  S  S  S  S  S  S  S
|-------------------------------------------------|
|-15-------------------------17-15-17-12-17-15-17-|
|-------------------------12----------------------|
|----15-14-15-12-15-14-15-------------------------|
|-------------------------------------------------|
|-------------------------------------------------|


   S  S  S  S  S  S  S  S  S  S  S  S  S  S  S  S
|-------------------------------------------------|
|-13-------------------------15-13-15----15-13-15-|
|-------------------------------------14----------|
|----14-12-14----14-12-14-15----------------------|
|-------------15----------------------------------|
|-------------------------------------------------|


   S  S  S  S  S  S  S  S  S  S  S  S  S  S  S  S
|-------------------------------------------------|
|-12-------------------------13-12-13----13-12-13-|
|-------------------------------------12----------|
|----12----12----12----12-14----------------------|
|-------15----14----15----------------------------|
|-------------------------------------------------|


   E  E  E  E  E  S  S  E  E    E  E  E  E  E  S  S  E  S  S
|----------------12-------12-|----15----------12-13-15----12-|
|----------12-13----15-13----|----------15-13----------13----|
|-14-14-12-------------------|-12----12----------------------|
|----------------------------|-------------------------------|
|----------------------------|-------------------------------|
|----------------------------|-------------------------------|


   S  S  S  S  S  S  S  S  E  S  S  E  E
|-----------------------------------------|
|-------------12-------------12-----------|
|-12-11-12-14----11-12----12----14-12-12--|
|----------------------12-----------------|
|-----------------------------------------|
|-----------------------------------------|


   E  E  E  E  E  S  S  E  S  S    Q   E  E  S  S  S  S  S  S  S  S
|-------------------------------|-----------------------------------|
|----15----15----12-13-15----12-|-----------------------------------|
|-14----------12----------12----|--------14-12----------------------|
|-------12----------------------|-12--12-------12----12----12----12-|
|-------------------------------|-----------------15----14----15----|
|-------------------------------|-----------------------------------|


   S  S  S  S  S  S  S  S  S  S  S  S  S  S  S  S
|-------------------------------------------------|
|----13-12-13----13-12-13-------------------------|
|-------------12----------14----------------------|
|-14----------------------------------------------|
|----------------------------15-14-15-12-15-14-15-|
|-------------------------------------------------|


   S  S  S  S  S  S  S  S  S  S  S  S  S  S  S  S
|-------------------------------------------------|
|----12-10-12----12-10-12-------------------------|
|-------------11----------12----------------------|
|-12----------------------------------------------|
|-------------------------------------------------|
|----------------------------15-14-15-12-15-14-15-|


   S  S  S  S  S  S  S  S  S S  S S  S S  S S
|---------------------------------------------|
|---------------------------------------------|
|----14-12-14----14-12-14-11------------------|
|-------------14------------------------------|
|-12-------------------------9----9----9----9-|
|------------------------------12---10---12---|


   S  S  S  S  S  S  S  S  E  E  E  E    E  S  S  E  E  E  E  E  E
|-------------------------------------|----------------------------|
|-------------------------------------|----12-------------15-------|
|----12-11-12----12-11-12----------11-|-------14-12-12----------14-|
|-------------12----------14----------|----------------12----12----|
|-10-------------------------15-15----|-14-------------------------|
|-------------------------------------|----------------------------|


   E  S  S  E  E  E  S  S  S  S  S  S
|-------------------------------------|
|----12-13-15-------------------------|
|-12-------------------------------13-|
|-------------12-16-12-14-16-14-16----|
|-------------------------------------|
|-------------------------------------|


   E  S  S  E  E  E  E  E  E    E  S  S  E  S  S  Q   E  E
|-------------------12-------|----------12-----------------|
|----13-12-------12-------12-|----13-15-------13-----------|
|-14-------14-14-------------|-14----------14-----------14-|
|----------------------14----|-------------------14--14----|
|----------------------------|-----------------------------|
|----------------------------|-----------------------------|


   S  S  S  S  S  S  S  S  S  S  S  S  S  S  S  S
|-13----------------------------------------------|
|----15-13-15----15-13-15-------------------------|
|-------------14----------16----------------------|
|----------------------------15----15----15----15-|
|-------------------------------14----14----14----|
|-------------------------------------------------|


   S  S  S  S  S  S  S  S  S  S  S  S  S  S  S  S
|-12----------------------------------------------|
|----13-12-13----13-12-13-------------------------|
|-------------12----------14----------------------|
|----------------------------14----14----14----14-|
|-------------------------------12----12----12----|
|-------------------------------------------------|


   S  S  S  S  S  S  S  S  S  S  S  S  S  S  S  S
|-------------------------------------------------|
|-15----------------------------------------------|
|----16-14-16----16-14-16-13----------------------|
|-------------16----------------------------------|
|----------------------------17----17----17----17-|
|-------------------------------16----16----16----|


   S  S  S  S  S  S  S  S  S  S  S  S  S  S  S  S
|-------------------------------------------------|
|-13----------------------------------------------|
|----14-12-14----14-12-14-11----------------------|
|-------------14----------------------------------|
|----------------------------15----15----15----15-|
|-------------------------------14----14----14----|


   S  S  S  S  S  S  S  S  S  S  S  S  S  S  S  S
|----------------15-14-12-11-------12----12----11-|
|----13-------------------------------------------|
|-------16-14-12-------------14-12----11----11----|
|-------------------------------------------------|
|-------------------------------------------------|
|-10----------------------------------------------|


   E  S  S  E  E  E  E  E  E    E  S  S  E  S  S  Q   E  E
|----15-14-------14-19-------|----15-17-19----15-14--------|
|-12-------17-17----------19-|-17----------17-----------19-|
|----------------------16----|-----------------------16----|
|----------------------------|-----------------------------|
|----------------------------|-----------------------------|
|----------------------------|-----------------------------|


   S  S  S  S  S  S  S  S  S  S  S  S  S  S  S  S
|----------------------------17-15-17----17-15-17-|
|-17-17-15-17----17-15-17-------------17----------|
|-------------16----------17----------------------|
|-------------------------------------------------|
|-------------------------------------------------|
|-------------------------------------------------|


   S  S  S  S  S  S  S  S  S  S  S  S  S  S  S  S
|-14-------------------------15-13-15----15-13-15-|
|----15----15----15----15-------------15----------|
|-------17----14----17----16----------------------|
|-------------------------------------------------|
|-------------------------------------------------|
|-------------------------------------------------|


   S  S  S  S  S  S  S  S  S  S  S  S  S  S  S  S
|----------------------------14----14----14----14-|
|-17----------------------------17----14----17----|
|----17-16-17----17-16-17-14----------------------|
|-------------17----------------------------------|
|-------------------------------------------------|
|-------------------------------------------------|


   S  S  S  S  S  S  S  S  S  S  S  S  S  S  S  S
|-------------------------------------------------|
|-16-------------------------17-15-17----17-15-17-|
|----16-14-16----16-14-16-12----------16----------|
|-------------16----------------------------------|
|-------------------------------------------------|
|-------------------------------------------------|


   E  E  E  E  E  S  S  E  E
|----------------15-14-12-12-|
|----------16-17-------------|
|-17-14-16-------------------|
|----------------------------|
|----------------------------|
|----------------------------|


   E  E  E  E  E  S  S  E  S  S    Q  Q   E  S  S  E  E
|-14-19----------15-17-19----15-|-14--------13-12----13-|
|----------19-17----------17----|--------15-------15----|
|-------16----------------------|-----------------------|
|-------------------------------|-----------------------|
|-------------------------------|-----------------------|
|-------------------------------|-----------------------|


   E  E  E  E  E  S  S  E  S  S    Q   E  E  S  S  S  S  S  S  S  S
|-12-17----------13-15-17----13-|-----------------------------------|
|----------17-15----------15----|--------17-15-15----15----15----15-|
|-------14----------------------|-14--14----------17----14----17----|
|-------------------------------|-----------------------------------|
|-------------------------------|-----------------------------------|
|-------------------------------|-----------------------------------|


   S  S  S  S  S  S  S  S  S  S  S  S  S  S  S  S
|----15-13-15----15-13-15-------------------------|
|-------------15----------17----------------------|
|----------------------------17-15-17----17-15-17-|
|-------------------------------------17----------|
|-22----------------------------------------------|
|-------------------------------------------------|


   S  S  S  S  S  S  S  S  S  S  S  S  S  S  S  S
|----13-12-13----13-12-13-------------------------|
|-------------13----------15----------------------|
|----------------------------15-14-15----15-14-15-|
|-15----------------------------------15----------|
|-------------------------------------------------|
|-------------------------------------------------|


   S  S  S  S  S  S  S  S  S  S  S  S  S  S  S  S
|----12----12----12-10-12-------------------------|
|-------15----12----------14----------------------|
|----------------------------14-12-14----14-12-14-|
|-14----------------------------------14----------|
|-------------------------------------------------|
|-------------------------------------------------|


   S  S  S  S  S  S  S  S  S  S  S  S  S  S  S  S
|-------------------------------------------------|
|----15-13-15----15-13-15-------------------------|
|-------------14----------15-14-12----------------|
|-15-------------------------------15-14-12-11----|
|----------------------------------------------14-|
|-------------------------------------------------|


   S  S  S  S  S  S  S  S  S  S  S  S  S  S  S  S
|-------------------------------------------------|
|----14-12-14----14-12-14-15----------------------|
|-------------14-------------12-------------------|
|-------------------------------15-14-12----------|
|-12-------------------------------------15-13-12-|
|-------------------------------------------------|


   S  S  S  S  S  S  S  S  S  S  S  S  S  S  S  S
|----18-17-18-15-18-17-18----15----15----15----15-|
|-------------------------17----18----17----18----|
|-------------------------------------------------|
|-------------------------------------------------|
|-------------------------------------------------|
|-15----------------------------------------------|


   S  S  S  S  S  S  S  S  S  S  S  S  S  S  S  S
|----12-10-12----12-10-12-------------------------|
|-14----------14-------------12----12-14-15-14-15-|
|-------------------------14----14----------------|
|-------------------------------------------------|
|-------------------------------------------------|
|-------------------------------------------------|


   S  S  S  S  S  S  S  S  S  S  S  S  S  S  S  S
|-------------------------------------------------|
|-15----15----15-15-15-15-15----15----15-15-15-15-|
|----15----15----------------15----15-------------|
|-------------------------------------------------|
|-------------------------------------------------|
|-------------------------------------------------|


   S  S  S  S  S  S  S  S  S  S  S  S  S  S  S  S
|----------12----12----12----12----12----12----12-|
|-15-14-14----------14----------14----------14----|
|-------------14----------14----------14----------|
|-------------------------------------------------|
|-------------------------------------------------|
|-------------------------------------------------|


   S  S  S  S  S  S  S  S  S  S  S  S  S  S  S  S
|----13----13----13----13----13----13----13----13-|
|-------15----------15----------15----------15----|
|-14----------14----------14----------14----------|
|-------------------------------------------------|
|-------------------------------------------------|
|-------------------------------------------------|


   S  S  S  S  S  S  S  S  S  S  S  S  S  S  S  S
|----15----15----15----15----15----15----15----15-|
|-14----17----14----17----14----17----14----17----|
|-------------------------------------------------|
|-------------------------------------------------|
|-------------------------------------------------|
|-------------------------------------------------|


   S  S  S  S  S  S  S  S  S  S  S  S  S  S  S  S
|----15----15----15----15----15----15----15----15-|
|-------14----------14----------14----------14----|
|-14----------14----------14----------14----------|
|-------------------------------------------------|
|-------------------------------------------------|
|-------------------------------------------------|


   S  S  S  S  S  S  S  S  S  S  S  S  S  S  S  S
|----13----13----13----13----13----13----13----13-|
|-------15----------15----------15----------15----|
|-14----------14----------14----------14----------|
|-------------------------------------------------|
|-------------------------------------------------|
|-------------------------------------------------|


   S  S  S  S  S  S  S  S  S  S  S  S  S  S  S  S
|----12----12----12----12----12----12----12----12-|
|-------15----------15----------14----------14----|
|-14----------14----------14----------14----------|
|-------------------------------------------------|
|-------------------------------------------------|
|-------------------------------------------------|


   E  S  S  E  E  E  E  E  E    E  S  S  E  S  S  Q   Q
|----13-12----13-12-17-------|----13-15-17----13---------|
|-15-------15-------------17-|-15----------15------------|
|----------------------14----|-------------------14--14--|
|----------------------------|---------------------------|
|----------------------------|---------------------------|
|----------------------------|---------------------------|


   S  S  S  S  S  S  S  S  E  E  E  E
|-17----17----17----17----18-18-18-18-|
|----18----15----18----15-------------|
|-------------------------------------|
|-------------------------------------|
|-------------------------------------|
|-------------------------------------|


   S  S  S  S  S  S  S  S  E  E  E  E    S  S  S  S  S  S  S  S  E  E  E  E
|-18----18----18----18----17-17-17-17-|-17----17----17----17----15-15-15-15-|
|----20----17----20----17-------------|----18----15----18----15-------------|
|-------------------------------------|-------------------------------------|
|-------------------------------------|-------------------------------------|
|-------------------------------------|-------------------------------------|
|-------------------------------------|-------------------------------------|


   S  S  S  S  S  S  S  S  S  S  S  S  S  S  S  S
|-15----15----15----15----13----13-17-13----13-17-|
|----17----14----17----14----15----------15-------|
|-------------------------------------------------|
|-------------------------------------------------|
|-------------------------------------------------|
|-------------------------------------------------|


   S  S  S  S  S  S  S  S  S  S  S  S  S  S  S  S
|-18-15-16----15----13----15----15-------------12-|
|----------18----16----15----16----15-16-14-15----|
|-------------------------------------------------|
|-------------------------------------------------|
|-------------------------------------------------|
|-------------------------------------------------|


   S  S  S  S  E E H      S  S  S  S  S  S  S  S  S  S  S  S  S  S  S  S
|-----------------------|---17-15-17----17-15-17--------------------------|
|-14----12--------------|------------17----------18-----------------------|
|----14----13-14--------|---------------------------19-17-19----19-17-19--|
|-----------------------|------------------------------------15-----------|
|-----------------------|-0-----------------------------------------------|
|-----------------------|-------------------------------------------------|


   S  S  S  S  S  S  S  S  S  S  S  S  S  S  S  S
|-------------------------------------------------|
|-------------------------------------------------|
|-16-16-14-16----16-14-16-17-17-16-17----17-16-17-|
|-------------17----------------------17----------|
|-------------------------------------------------|
|-------------------------------------------------|


   S  S  S  S  S  S  S  S  S  S  S  S  S  S  S  S
|-------------------------------------------------|
|-------------------------------------------------|
|----------------------------------16----16-14-16-|
|-19-19-17-19----19-17-19-21-21-19----16----------|
|-------------20----------------------------------|
|-------------------------------------------------|


   S  S  S  S  S  S  S  S  S  S  S  S  S  S  S  S
|-------------------------------------------------|
|-------------------------------------------------|
|-13-13-11-13----13-11-13-14-14-12-14----14-12-14-|
|-------------14----------------------14----------|
|-------------------------------------------------|
|-------------------------------------------------|


   S  S  S  S  S  S  S  S  S  S  E S  S  S  S
|---------------------------------------------|
|---------------------------------------------|
|-------------------------13----14------14-13-|
|-15-15-14-15----14----12----14------14-------|
|-------------17----15------------------------|
|---------------------------------------------|


   E  S  S  E  E E  E  E  E    E  S  S  E  S  S  Q   E  E
|------------------12-------|-----------------------------|
|----13-12-10-10-9----------|----13-15-17-----------------|
|-14---------------------16-|-14-------------17--------14-|
|---------------------14----|-------------19--------14----|
|---------------------------|-------------------19--------|
|---------------------------|-----------------------------|


   S  S  S  S  S  S  S  S  S S E Q
|------------------------------------|
|-15-15-13-15----15-13-15------------|
|-------------14----------16---------|
|------------------------------------|
|------------------------------------|
|------------------------------------|


   S  S  S  S  S  S  S  S  S  S  S  S  S  S  S  S
|-------------------------------------------------|
|-17----------------------------------------------|
|----17-16-17----17-16-17-14----------------------|
|-------------17-------------14----14----14----14-|
|-------------------------------12----12----12----|
|-------------------------------------------------|


   S  S  S  S  S  S  S  S  S  S  S  S  S  S  S  S
|-------------------------------------------------|
|-15----------------------------------------------|
|----16-14-16----16-14-16-13----------------------|
|-------------16----------------------------------|
|----------------------------17----17----17----17-|
|-------------------------------16----16----16----|


  S  S  S  S  S  S  S  S  S  S  S  S  S  S  S  S
|---------------17-15-17----17----17----16-14-16-|
|------------------------18----15----------------|
|---17-16-17-14----------------------16----------|
|------------------------------------------------|
|------------------------------------------------|
|------------------------------------------------|


   S  S  S  S  S  S  S  S  S  S  S  S  S  S  S  S
|-17----------------------------------------------|
|----17-15-17----17-15-17----18-17-18-15-18-17-18-|
|-------------17----------14----------------------|
|-------------------------------------------------|
|-------------------------------------------------|
|-------------------------------------------------|


   S  S  S  S  S  S  S  S  S  S  S  S  S  S  S  S
|-15----------------------------------------------|
|----15-13-15----15-13-15-17-15-17----17-15-17-15-|
|-------------16-------------------17-------------|
|-------------------------------------------------|
|-------------------------------------------------|
|-------------------------------------------------|


   S  S  S  S  S  S  S  S  S  S  S  S  S  S  S  S
|-13-15-12-13----12-------------------------------|
|-------------15----13-15-------------------------|
|-------------------------16-17-------17----16----|
|-------------------------------14----------------|
|----------------------------------17----17----16-|
|-------------------------------------------------|


   S  S  S  S  E  E  E  E  E  E    E  S  S  E  S  S  Q   E  E
|----------------------15-------|--------------------------15-|
|----15-17-15-13-13----------15-|----17-18-20----17-15--------|
|-17----------------12----------|-17----------17--------------|
|-------------------------17----|-----------------------17----|
|-------------------------------|-----------------------------|
|-------------------------------|-----------------------------|


   S  S  S  S  S  S  S  S  S  S  S  S  S  S  S  S
|--------------------------------------------------|
|-17-------------------------18-17-18----18-17-18--|
|-------------------------14----------17-----------|
|----17-15-17-14-17-15-17--------------------------|
|--------------------------------------------------|
|--------------------------------------------------|


   S  S  S  S  S  S  S  S  S  S  S  S  S  S  S  S
|-------------------------------------------------|
|-15-------------------------17-15-17----17-15-17-|
|-------------------------------------16----------|
|----15-14-15----15-14-15-17----------------------|
|-------------17----------------------------------|
|-------------------------------------------------|


   S  S  S  S  S  S  S  S  S  S  S  S  S  S  S  S
|-------------------------------------------------|
|----------------------------------15----15-13-15-|
|-17-------------------------19-17----14----------|
|-------------------------------------------------|
|----19-17-19----19-17-19-20----------------------|
|-------------20----------------------------------|


   S  S  S  S  S  S  S  S  S  S  S  S  S  S  S  S
|-------------------------------------------------|
|-------------------------------------------------|
|-16-------------------------17-16-17----17-16-17-|
|-------------------------14----------17----------|
|----17-15-17-14-17-15-17-------------------------|
|-------------------------------------------------|


   S  S  S  S  S  S  S  S  S  S  S  S  S  S  S  S
|-------------------------------------------------|
|-------------------------------------------------|
|-14-17----17----17----17----17----17----17----17-|
|-------15----15----15----14----14----14----14----|
|-------------------------------------------------|
|-------------------------------------------------|


   S  S  S  S  S  S  S  S  S  S  S  S  S  S  S  S
|----15-13-15----15-13-15----20-19-20----20-19-20-|
|-------------15----------17----------20----------|
|-16----------------------------------------------|
|-------------------------------------------------|
|-------------------------------------------------|
|-------------------------------------------------|


  Q=85                             Q=70       Q=30
   S  S  S  S  S  S  S  S  S  S  S  S  E  E     Q  Q  H
|----20-19-20----19-17-19-20-17-------------|--------------*|
|-22----------------------------20-18-------|--------------*|
|-------------19----------------------17-16-|--17----------*|
|-------------------------------------------|--------------*|
|-------------------------------------------|--------------*|
|-------------------------------------------|--------------*|


Duration Legend
---------------
W - whole; H - half; Q - quarter; E - 8th; S - 16th; T - 32nd; X - 64th; a - acciaccatura
+ - note tied to previous; . - note dotted; .. - note double dotted
Uncapitalized letters represent notes that are staccato (1/2 duration)
Irregular groupings are notated above the duration line
Duration letters will always appear directly above the note/fret number it represents the
duration for.  Duration letters with no fret number below them represent rests.  Multi-
bar rests are notated in the form Wxn, where n is the number of bars to rest for.  Low
melody durations appear below the staff

Tablature Legend
----------------
 h   - hammer-on
 p   - pull-off
 b   - bend
 pb  - pre-bend
 r   - bend release (if no number after the r, then release immediately)
 /\  - slide into or out of (from/to "nowhere")
 s   - legato slide
 S   - shift slide
  - natural harmonic
[n]  - artificial harmonic
n(n) - tapped harmonic
 ~   - vibrato
 tr  - trill
 T   - tap
 TP  - trem. picking
 PM  - palm muting
\n/  - tremolo bar dip; n = amount to dip
 \n  - tremolo bar down
 n/  - tremolo bar up
/n\  - tremolo bar inverted dip
 =   - hold bend; also acts as connecting device for hammers/pulls
   - volume swell (louder/softer)
 x   - on rhythm slash represents muted slash
 o   - on rhythm slash represents single note slash

Misc Legend
-----------
 |  - bar
||  - double bar
||o - repeat start
o|| - repeat end
*|  - double bar (ending)
 :  - bar (freetime)
 $  - Segno
 &  - Coda
Tempo markers -  = BPM(8/16=s8/s16), where s8 = swing 8ths, s16 = swing 16ths





Comments


Popular Johann Sebastian Bach tabs & chords
Arioso Tabs
Bwv 1013 Sarabande In A Minor Tabs
Bwv 893 - Prelude No 24 In Bm Tabs
Bwv 998 - Prelude Tabs
Cello Suite No 1 - Prelude Tabs
Minuet In G 1 Tabs
Ode To Joy Tabs
Sarabande - Js Bach Lute Suite No3 Bwv 995 Tabs
Sheep May Safely Graze Tabs
Toccata And Fugue In D Minor Tabs


Song lyrics



↑ Back to top | Tablatures and chords are parodies/interpretations of the original songs. You may use it for private study, scholarship, research or language learning purposes only
© 2014 AZChords.com Contact us | Privacy policy | DMCA | Add/correct tabs | Request tabs | Top 50 tabs