» » »

Johann Sebastian Bach, Bwv 1008 - Cello Suite In Dm Courante Tabs (ver.1)

Artists:  A B C D E F G H I J K L M N O P Q R S T U V W X Y Z # 

Bwv 1008 - Cello Suite In Dm Courante Tabs (ver.1)

Johann Sebastian Bach Tabs
 Rating:
4/5 (4 votes)
Bwv 1008 - Cello Suite In Dm Courante lessons Tabs too difficult? Try these video lessons and learn fast
                -------------------------------------------------------------------------------
                             BWV 1008- Courante (3rd movement) by J.S. Bach
-------------------------------------------------------------------------------

Original key, standard tuning for guitar

Timing is 3/4 and all notes are 16th's unless a q is above (quarter),
although if you don't know what a quarter note or 3/4 means, you probably won't
be able to play this piece.  H/P demarcations do not affect note value


 Section A                       q
e|---|-------------------------|---------------------|-----------------------------|
B|-3-|-3-----------------------|---------------------|-----------------------------|
G|---|---2---2-----0-2-3-2-3-0-|-2-----------0---0---|---------------2-0-----------|
D|---|-----3---0-3-------------|-2-----0-2-3---3---2-|-3-0-2-------------3-2-0-----|
A|---|-------------------------|-4---4---------------|-------3-1-0-1---------------|
E|---|-------------------------|---------------------|-----------------------------|

                                                       q
e|-------------------------|-------------------------|--------------------------|
B|-------------------------|-----------------1---3---|-1-----1------------------|
G|-----------------0-3-2---|---2-------0-2-3---3---3-|---------3-2-0------------|
D|---2-------0-2-3-------2-|-3---0-2-3---------------|-3-------------3-1-0-1----|
A|-4---0-2-4---------------|-------------------------|-0------------------------|
E|-------------------------|-------------------------|--------------------------|


e|-------------------------|-------------------------|--------------------------|
B|-------------------------|-------------------------|-----------------1---3----|
G|---------------------0---|-------------0-2-3-2-3-0-|-2-------2---3------------|
D|-0-------0---2---3-------|-------0-2-3-------------|---3-2-3---3---3---3---3--|
A|---1-0-1---1---1---1---1-|-----3-------------------|--------------------------|
E|-------------------------|-0-3---------------------|--------------------------|


e|-------------0-1-3-1-3-0-|-----1-0-----------------|--------------------------|
B|-------0-2-3-------------|---------3-1-3-1-0---0---|-----0--------------------|
G|-----2-------------------|---2---------------2---2-|-1-2----------------------|
D|---2---------------------|-0-----------------------|-------2-3-2-3-0-2---0----|
A|-4-----------------------|-------------------------|-------------------3---2--|
E|-------------------------|-------------------------|--------------------------|


e|-------------------------|-------------------------|--------------------------|
B|-----0h1p0---------------|-----0h1p0---------------|-----0h1p0----------------|
G|---2-------2-1h2---2---2-|---2-------2-1h2---2---2-|---2-------2-1h2---2---1--|
D|-----------------0---2---|-3---------------3---2---|-1---------------2---2----|
A|-3-----------------------|-------------------------|--------------------------|
E|-------------------------|-------------------------|--------------------------|

                    q
e|-------------------------|
B|-------------------------|
G|-2-------------1h-2-----o|
D|---2---2-----2-----------|
A|-----4---0h4------------o|
E|-------------------------|

Section B
                                  q
---0-|-0------------------------|------------0-1-------|-------------------------|
-----|---2---2--------------2---|-3----3---3-----3---1-|-0---------------0---3---|
o----|-----2-------0-2-3p0----0-|-2------2---------2---|---------------0---------|
-----|---------2h3--------------|-3--------------------|---3-0-3---0-3-----3---3-|
o----|--------------------------|-0--------------------|-------------------------|
-----|--------------------------|----------------------|---------3---------------|

                                                        q
e|-------------------------|--------------------------|--------------------------|
B|-------------------3p1---|----1---------------1-----|------------------1-3-----|
G|---0---------0-2-3-----0-|--2---3-2-0---------------|------------0-2-3---------|
D|-2-----0-2-3-------------|--3---------3-1-0-1---3-1-|-0----0-2-3---------------|
A|-----3-------------------|--------------------------|-1------------------------|
E|-------------------------|--------------------------|--------------------------|

e|--------------------------|--------------------------|-------------------------|
B|--------------------------|--------------------------|-------------------------|
G|--------------------------|----2-3-2-0-------0-------|---0---0---0---0---0---0-|
D|-2----------3---------3-2-|--3---------3-2-3---2-3p0-|-------------------------|
A|---1p0----0-------3-------|--------------------------|-4---2---0---2---4---0---|
E|-------3------3-1---3-----|--------------------------|-------------------------|


e|----------------0-1-------|-----------3---1---0------|-----0-------------------|
B|----------3---3-----------|------------------------3-|-2h3---2---2---2---2---2-|
G|--------2---2-------2-----|-----0-2-3---2---0--------|---------2---3---2---0---|
D|--3-0-3---------------3-0-|---0------------------3---|-------------------------|
A|--------------------------|--------------------------|-------------------------|
E|--------------------------|-3------------------------|-------------------------|


e|-----0h1p0----------------|-----0h1p0----------------|-----0h1p0---------------|
B|---3-------3-2h3---3---3--|---3-------3-2h3---3---3--|---3-------3-2h3---3---2-|
G|-----------------0---2----|-3---------------3---2----|-1---------------2---2---|
D|-3------------------------|--------------------------|-------------------------|
A|--------------------------|--------------------------|-------------------------|
E|--------------------------|--------------------------|-------------------------|

                     f, for 'fermata that sh*t, then repeat B if you aren't in a hurry'
e|--------------------------|
B|-3-----------------3------|
G|---2---2-----------2------|
D|-----3---0-3---0---3------|
A|-------------0-----0------|
E|--------------------------|

I will transcribe more with enough encouragement
            
Submit corrections

comments powered by Disqus
↑ Back to top | Johann Sebastian Bach Tabs for Bwv 1008 - Cello Suite In Dm Courante. Lyrics for acoustic guitar and electric guitar. Tablatures and chords are parodies/interpretations of the original songs. You may use it for private study, scholarship, research or language learning purposes only