>
 >
Aria

Aria Guitar Tabs

Johann Sebastian Bach - Aria chords, tabs, tablatures, lyrics

Guitar lessons | Add/correct | Request | Top 50 tabs Artists:  A B C D E F G H I J K L M N O P Q R S T U V W X Y Z 0-9

Aria Guitar Tabs – Johann Sebastian Bach

CD, Sheet music, Poster

Do you like Aria? Share with your friends now
Tabs
----------------------------------------------------------------------------
----------------------------------------------------------------------------



Tuning: Standard
                                                                            
 

E||--3----3----5---7-|--5--3-2-0----------|-------------------|
B||--0----0----------|--7---------3-------|-------------------|
G||------------0-----|--------------------|--0----0---------0-|
D||-------0----------|--0------------0----|---------------4---|
A||------------------|---------0----------|------------4------|
E||--3---------------|--------------------|--0----3-----------|

  
--------------------------|------------0---1-|--0----------------2--|
--------------------------|--3----3----------|-----3p-1-0-----------|
--2-0---0-----------------|------------0-----|-------------2--------|
--0---4---4-3-2--0--------|-------0----------|----------------0-----|
--------------------0--3--|--2---------------|--3-------------------|
--------------2-----------|------------------|----------------------|

  
--3p-2-5p-3-2p-0-----5-----|---------------------|------------------|
-----------------3---------|--0------------------|--0----0----2---3-|
-------------------5----5--|----0----0-----------|--0---------------|
------------0--------0-----|------4-----0--2--4--|------------2-----|
---------------------------|---------------------|-------2----------|
--0------------------------|--3------------------|--3---------------|

  
-----------------------|--3----3-------2h-3-|--2--2p-0----------0--|
--3p-2-0---3-----------|--0----0------------|--3-------2-----------|
---------2-------------|--0----0----0-------|----------------------|
-----------------------|-------2------------|----------------------|
--0-----------------2--|--------------------|--0----------0--2--4--|
-----------2--0--2-----|--0-----------------|----------------------|

   
--5p-3-2p-0---------------|----------------------0-|-----------3-----------|
------------3--------0h-1-|--0-----------3--2--3---|--3p-2-0------0-----2--|
---------------2----------|----2p-0----------------|---------2-------------|
--0---------------0-------|---------4-2-----2------|-----------------2-----|
--------------------------|-----------0------------|--0--------------------|
------------2-------------|--3---------------------|-----------0-----------|

 
----0-----------------|--3----3----5---7-|--5--3-2-0----------|
--3---3p-2-3----------|--0----0----------|--7---------3-------|
----------------------|------------0-----|--------------------|
--0--------------0----|-------0----------|--0------------0----|
--------------0-------|------------------|---------0----------|
----------------------|--3---------------|--------------------|

  
-------------------|--------------------------|------------0---1-|
-------------------|--------------------------|--3----3----------|
--0----0---------0-|--2-0---0-----------------|------------0-----|
---------------4---|--0---4---4-3-2--0--------|-------0----------|
------------4------|--------------------0--3--|--2---------------|
--0----3-----------|--------------2-----------|------------------|

   
--0----------------2--|--3p-2-5p-3-2p-0-----5-----|---------------------|
-----3p-1-0-----------|-----------------3---------|--0------------------|
-------------2--------|-------------------5----5--|----0----0-----------|
----------------0-----|------------0--------0-----|------4-----0--2--4--|
--3-------------------|---------------------------|---------------------|
----------------------|--0------------------------|--3------------------|

  
------------------|-----------------------|--3----3-------2h-3-|
--0----0----2---3-|--3p-2-0---3-----------|--0----0------------|
--0---------------|---------2-------------|--0----0----0-------|
------------2-----|-----------------------|-------2------------|
-------2----------|--0-----------------2--|--------------------|
--3---------------|-----------2--0--2-----|--0-----------------|

  
--2--2p-0----------0--|--5p-3-2p-0---------------|----------------------0-|
--3-------2-----------|------------3--------0h-1-|--0-----------3--2--3---|
----------------------|---------------2----------|----2p-0----------------|
----------------------|--0---------------0-------|---------4-2-----2------|
--0----------0--2--4--|--------------------------|-----------0------------|
----------------------|------------2-------------|--3---------------------|

 
-----------3-----------|----0-----------------|---------------------|
--3p-2-0------0-----2--|--3---3p-2-3----------|--------------0-1h-3-|
---------2-------------|----------------------|--2----2----2--------|
-----------------2-----|--0--------------0----|--0------------------|
--0--------------------|--------------0-------|------------3--------|
-----------0-----------|----------------------|-------2-------------|

  
--0-----------------3--|--2p-0-2------0--5h-7-5-3-|--5---2-0-----------|
----3-1p-0-------------|---------4-4-----0--------|-----------4-----0--|
-----------2--0--------|-----------0--------------|--------------------|
-----------0-----------|--------------------------|--------4-----------|
--2--------------2-----|--3-----------------------|--2-----------2-----|
-----------------------|--------------------------|--------------------|

   
--3---2-2--0-----------|--3p-0-2------0-----------|-----0-----5--3--2--|
--0-----------1p-0---0-|---------4-4--------------|--------4-----------|
--0-----0----------2---|-----------0-------0------|--------4-----------|
--------------0--------|---------------------4p-2-|--4--------4--2--1--|
-----------------------|--3--------------2--------|--0-----------------|
--0--------------------|--------------------------|--------------------|

  
--0--2---0-----------|--0---------------------|------------------------|
--0----4-0-----------|-----3p-1-0--------0h-1-|--3p-1-0--------------0-|
--0------0-----------|-------------2----------|---------2-2--0-----2---|
---------------2--0--|----------2-------------|-----------0------------|
-----2------2--------|--3-------------0-------|--2---------------------|
--0------0-----------|------------------------|-----------------3------|

 
------------------------------|--------------------0------|
--1h-3-1p-0-1-------1p-0------|----3---0-1-------1---3p-1-|
--------------2---2------2p-0-|------5-----2---2----------|
----------------2-------------|--4-------0---4------------|
--0-----------------0---------|--5------------------------|
------------------------------|---------------------------|

  
----------------------------|--0h-1-0---0-------0---2h-3-|
--0h-1-0---0-------0---1h-3-|---------3---1---1---1------|
---------2---0---0---0------|---------------0------------|
---------------0------------|----------------------------|
----------------------------|--3----------------0--------|
--3----------------3--------|----------------------------|

     
--5-------------------------|------------------------||
------0---0h-1-3---0--------|------------------------||
----5---2--------0---2p-0---|--0------------0---0----||
--0----------------0------4-|-------------0---4------||
----------------------------|----3p-2-0-2------------||
----------3-----------------|--3----------------3----||

| /  slide up
| \  slide down
| h  hammer-on
| p  pull-off
| ~  vibrato
| +  harmonic
| x  Mute note
===========================================================================





Comments


Popular Johann Sebastian Bach tabs & chords
Cello Suite No 1 - Prelude Bass Tabs
Agnus Dei Tabs
Bwv 1007 Prelude In D Tabs
Bwv 1047 - Allegro Tabs
Bwv 244 O Sacred Head Sore Wounded Tabs
Bwv 784 - Invention No 13 Tabs
Bwv 804 - Duetto Iii In G Major Tabs
Bwv 846 - Prelude 1 In C Tabs
Bwv 867 - Fugue No 22 In Bbm Tabs
Cello Suite No 1 - Prelude Tabs


Song lyrics



↑ Back to top | Tablatures and chords are parodies/interpretations of the original songs. You may use it for private study, scholarship, research or language learning purposes only
© 2014 AZChords.com Contact us | Privacy policy | DMCA | Add/correct tabs | Request tabs | Top 50 tabs