>
 >
Allemande From Lute Suite No 1 Bwv 996 Em

Allemande From Lute Suite No 1 Bwv 996 Em Guitar Tabs

Johann Sebastian Bach - Allemande From Lute Suite No 1 Bwv 996 Em chords, tabs, tablatures, lyrics

Guitar lessons | Add/correct | Request | Top 50 tabs Artists:  A B C D E F G H I J K L M N O P Q R S T U V W X Y Z 0-9

Allemande From Lute Suite No 1 Bwv 996 Em Guitar Tabs – Johann Sebastian Bach

CD, Sheet music, Poster

Do you like Allemande From Lute Suite No 1 Bwv 996 Em? Share with your friends now
Tabs


E||--------------------|------------0-------------------0-|
B||-----------------0--|--0-----------3-1-------------0---|
G||*-------------------|------------------4-2-0-----0-----|
D||*-------------------|----------2-------------4-2-------|
A||--------------------|--------2-------------------------|
E||--------------------|----0h3---------------------------|
                              3 1 2   4 1 4 2   4 2


----------------------------------|------0---------------------------|
--4---------5-4-5-7---5-8-7---4---|----0-------0-1-3-1-----------3---|
----------4---------4-------6---2-|--0-----------------4-2-0---2---2-|
--------4-------------------------|----------2---------------4---4---|
------6-------4---6---7---0---2---|--------2---------0---3---5-------|
----7-----------------------------|--0-----------0-------------------|
  1 4 3 1 1 2 1 2 4 1 1 4-4 2 4 1          2 3   1 4 1 4 2   3 1 2 1
              1   3   3   0   1                          3   4   3


------------------0---------------|----------------------------------|
--0---------3-1-0---0-1-3-1-------|----------------0-----------------|
----------------------------4-2-0-|--------------0---2-4-------4-----|
----4-5-0-2-----0-----------------|--4-2-0-----0---------2-5-4---4-7-|
------------2-3---3---------------|--------3-2-------3---4---5---6---|
--3-------------------------------|----------------------------------|
  2 3 4   1 4 1 0     1 4 1 4 2 0    4 2 0 3 2       1 3 1 4 1 3 1 4
            1 3 0 3                                  2   3   2   3     


------------------------------0---|------7---------------------------|
--------------------2---2-3-----0-|--7p0---10-8-7-----------0-0------|
--0-2-0---------------------4-----|---------------9-7-------------3--|
--2-----4-2-0---------4-----------|------------------11-9-8---4------|
--------------4-2-1-------2---4---|--5--------7---9--10---7----------|
----------------------------------|------7----------------------2----|
  0 3 0
  2     4 2   4 2 1 2 4 2 2 3        4p0 1 4  2 1 4 1 4 2-2   0 1 2
                          1---1------1   1    1   3   3   1   3


--------------------------------||--------------------|
--0---------------0-------------||---------------4----|
-------------------------------*||*-------------------|
--------1-2-4-6-8---5-4-2-4----*||*-------------------|
----2-4-------------7-6-4-6-----||--------------------|
--------------------------7-----||--------------------|
  0 2 4 1 2 4 2 4   2 1-1-1                      1
                    4 3-3-3
                          4


------------7-5-------------------|--0-3-7-----5---------------------|
--4-------------8-7-5-----0---4---|--------0-5---8-7-5-3-2-------2---|
----------4-----------8-6---2-0---|------0-----------------4-2-------|
--------4-----------------------4-|--2-------------------------5-4-2-|
------6---------------------------|----------------------------------|
----7-----------------------------|----------------------------------|
  1 4 3 1 1 3 1 4 3 1 4 2   1 4 3    0 4-4 0 1 1 4 3 1 2 1 3 1 4 1 
                              0      2   0                       3 1


------------------------------0---|--2-3-2--------------------------|
--3-------3-5-3-------------------|--------5-3-2-----------2-2---0--|
--------2-------5-4-2-------------|--------------4-3-4-3-4---3------|
--4-0-4---------------5-4-2-------|------------------0-------4------|
----------------------------5-4-2-|--1-------2---4-------2----------|
----------------------------------|------2---------------------2----|
  2     1 2 4 2 4 3 1 4 3 1 4 0 1    2 3 1 4 2 1 4 2 4 3 4 1 1 1 0
  3   3                       3      1   1   1   3   0   1   2
                                                             3


----------------------0-----------|----------------------------------|
--0-----------------0---------0---|--1-------------------3-----------|
----0-----------------------1-----|----------2---------2---------2---|
------4-2-1---------------2-----2-|--------2-------------------4-----|
--2---------3-2-0-------2---------|----0h3-----2-0---------0-5-----5-|
------------------4-----------0---|----------------3-2---------------|
  0 0 4 2 1 3 2 0 4 0 0 2 3 1   3    1 0 3 1 2 1 0 3 1 2 4 0 4 3 1 4 
  2


----------------------------------|----------------0-------------2-5-|
--0-------------------0-----------|--------------0---1---------2-----|
----------0-----------------------|--0---------0-------------2-------|
--------0---5-4-----4-------1-4---|----------2-------------2---------|
------2---------7-6-------2-----2-|--------2-----------0-4-----------|
----3-------------------2---------|----0h3---------------------------|
  0 3 1 0 0 2 1 4 3 1 0 2 3 1 4 2    0 0 3 1 2 0 0 0 1 0 3 1 1 1 1 4


------------------0-------------------|-------------------0--------0---||
--4-------0-2-4p0---------------------|----------------------------0---||
--------------------0-----------------|------------4-5-7~---2-1----1--*||
--------4-----4---2---4-2-1h2p1h2-1-2-|--2---4-6-7--------------4--2--*||
------6-------0-------0-3-2-----------|---------------------3-2-0--2---||
----7-------------3-------------------|----0-----------------------0---||
  1 4 3 1 0 1 4 0 2 0 4 2 1 2 1 2 1 1    1 0 1 3 4 1 2 4  0 2 1 4  0
              3   3   0 3 2                                 3 2 0  0
                                                                   1
                                                                   3
                                                                   2
                                                                   0





Comments


Popular Johann Sebastian Bach tabs & chords
Cello Suite No 1 In G Maj Bass Tabs
Bwv 998 - Prelude Tabs
Bwv Anh 122 Marche In D Tabs
Cello Suite Prelude In G Major Tabs
Jesu Joy Of Mans Desiring Tabs
Menuet In G Tabs
Prelude In Cm Tabs
Prelude No 1 In C-major Well Tempered Clavier Tabs
Sarabande - Js Bach Lute Suite No3 Bwv 995 Tabs
Sonata 2 Tabs


Song lyrics



↑ Back to top | Tablatures and chords are parodies/interpretations of the original songs. You may use it for private study, scholarship, research or language learning purposes only
© 2014 AZChords.com Contact us | Privacy policy | DMCA | Add/correct tabs | Request tabs | Top 50 tabs