» » »

Joe Walsh, One Day At A Time Tabs (ver.2)

Artists:  A B C D E F G H I J K L M N O P Q R S T U V W X Y Z # 

One Day At A Time Tabs (ver.2)

Joe Walsh Tabs
 Rating:
4/5 (4 votes)
One Day At A Time lessons Tabs too difficult? Try these video lessons and learn fast
1
                NOTE: This is not the tab for the rhythm guitar, just the lead guitar.

h = hammer-on
p = pull-off
b = bend
r = release
s = slide

[Intro Solo]

e|-----------------------------------------------|
B|-----------------------------------------------|
G|---9b11r9--7--------9b11--7--9-----7--9b11-----|
D|--------------9--7--------------9--------------|
A|-----------------------------------------------|
E|-----------------------------------------------|

e|--------------10---------------|
B|----------10-------------------|
G|---12b14----------12--11-------|
D|--------------------------12---|
A|-------------------------------|
E|-------------------------------|

e|--------------10---------------|
B|----------10-------------------|
G|---12b14----------12--11-------|
D|--------------------------12---|
A|-------------------------------|
E|-------------------------------|

e|------------------------------------------------------|
B|------------------------------------------------------|
G|--------7--7-----7-----9b11--7--9-----7-----9b11--7---|
D|---7s9--------9-----9--------------9-----9------------|
A|------------------------------------------------------|
E|------------------------------------------------------|

[End of Solo]

Well you know,
I was always the first to arrive at the party, ooh!
And the last to leave the scene of the crime
Well it started with a couple of beers,
And it went I dont know how many years,
Like a runaway train headed for the end of the line.

Well I finally got around to admit that I might have a problem.

e|-------------------|
B|-------------------|
G|---------7---------|         *Saxophone / Trumpet*
D|---7--9-----9--7---|
A|-------------------|
E|-------------------|

But I thought it was just too damn big of a mountain to climb.

e|--------------------------|
B|--------------------------|
G|---11--11--9--9s7-----7---|       *Saxophone / Trumpet*
D|-------------------9------|
A|--------------------------|
E|--------------------------|

Well I got down on my knees and said 'Hey!'
'I just cant go on living this way!'
Guess I have to learn to live my life one day at a time.

Oh yeah! One day at a time!
Oh yeah! One day at a time!

[Solo]

e|---3------------------|
B|---3--3---7s0-----3---|
G|------4--------4--2---|
D|----------------------|
A|----------------------|
E|----------------------|

e|--------2-------------------------------|
B|-----------5----------------------------|
G|---4b6--------4b6r4--2--------2--2s15---|
D|------------------------4--2------------|
A|----------------------------------------|
E|----------------------------------------|

e|---------------------------------------5------------|
B|---5--7--7b8--7b8r7--5--7--5-----7--8-----5---s15---|
G|------------------------------7---------------------|
D|----------------------------------------------------|
A|----------------------------------------------------|
E|----------------------------------------------------|

e|------------------------------------------------|
B|---17-19-19b20r19--19b20r19--19b20r19--17-------|
G|-------------------------------------------19---|
D|------------------------------------------------|
A|------------------------------------------------|
E|------------------------------------------------|

e|---17b19r17--15--14---------------|
B|---------------------17--15-------|
G|-----------------------------16---|
D|----------------------------------|
A|----------------------------------|
E|----------------------------------|

e|----------15-17-19--17--15--14------17--15--14-----------|
B|---17-19------------------------17--------------17--15---|
G|---------------------------------------------------------|
D|---------------------------------------------------------|
A|---------------------------------------------------------|
E|---------------------------------------------------------|

e|------------------15-21---|
B|---------------19---------|
G|------------19------------|     
D|------16-19---------------|
A|---17---------------------|
E|--------------------------|

[End of Solo]

Oh yeah! One day at a time!
Oh yeah! One day at a time!

Well I finally got around to admit that I was a problem.
When I used to put the blame on everybody's shoulders but mine.
All the friends I used to run with are gone,
Lord, I hadn't planned on livin' this long.

I have to learn to live my life one day at a time!

It was something I was too blind to see,
I got help from something greater than me...
And I have to learn to live my life one day at a time!
            
Submit corrections

comments powered by Disqus
↑ Back to top | Joe Walsh Tabs for One Day At A Time. Lyrics for acoustic guitar and electric guitar. 1 Tablatures and chords are parodies/interpretations of the original songs. You may use it for private study, scholarship, research or language learning purposes only