» » »

A Life Of Illusion Tabs (ver.2)

Artists:  A B C D E F G H I J K L M N O P Q R S T U V W X Y Z # 

A Life Of Illusion Tabs (ver.2)

Joe Walsh
Rating:
0/5 (0 votes)

Hard to play? Try these video lessons and learn fast.
                                                    A Life of Illusion
(Chords)           G   D   A
               E|--x---x---x-----|
               B|--x---x---x-----|
               G|--x---x---x-----|
               D|--5---4---7-----|
               A|--5---5---7-----|
               D|--5---0---7-----|

(Drop D tuned)

(Intro)                         D
E|----------------------------|------------------------------------------|
B|----------------------------|------------------------------------------|
G|----------------------------|------------------------------------------|
D|------------------0----2--0-|-4--4--x--x--4--4--x--x--4--4--x--x--4--4-|
A|-------0----2---0----4----0-|-5--5--x--x--5--5--x--x--5--5--x--x--5--5-|
D|-0-2-4---4------------------|-0--0--x--x--0--0--x--x--0--0--x--x--0--0-|(2x)

    G
Sometimes I can't help the feeling that I'm
                   D
Living a life of illusion
    G
And oh, why can't we let it be
                                            D
And see through the hole in this wall of confusion
  A
I just can't help that feeling I'm
G                  D
Living a life of illusion

                                D
E|----------------------------|------------------------------------------|
B|----------------------------|------------------------------------------|
G|----------------------------|------------------------------------------|
D|------------------0----2--0-|-4--4--x--x--4--4--x--x--4--4--x--x--4--4-|
A|-------0----2---0----4----0-|-5--5--x--x--5--5--x--x--5--5--x--x--5--5-|
D|-0-2-4---4------------------|-0--0--x--x--0--0--x--x--0--0--x--x--0--0-|(2x)

G
Pow right between the eyes
                                   D
Oh, how nature loves her little surprises
G
Wow it all seems so logical now
                               D
It's just one of her better disguises
       A
And it comes with no warning
G                          D      A  G
Nature loves her little surprises
          D
Continual crisis

(Solo) G A G A G A G D   G A G A D

                                D
E|----------------------------|------------------------------------------|
B|----------------------------|------------------------------------------|
G|----------------------------|------------------------------------------|
D|------------------0----2--0-|-4--4--x--x--4--4--x--x--4--4--x--x--4--4-|
A|-------0----2---0----4----0-|-5--5--x--x--5--5--x--x--5--5--x--x--5--5-|
D|-0-2-4---4------------------|-0--0--x--x--0--0--x--x--0--0--x--x--0--0-|(2x)

G
Hey, don't you know it's a waste of your day
                       D
Caught up in endless solutions
                       G
That have no meaning, just another hunch
                      D        A
Based upon jumping conclusions
G                      D       A
Caught up in endless solutions
       G                       D      A
Backed up against a wall of confusion
G                  D
Living a life of illusion
                                D
E|----------------------------|----|
B|----------------------------|----|
G|----------------------------|----|
D|------------------0----2--0-|-4--|
A|-------0----2---0----4----0-|-5--|
D|-0-2-4---4------------------|-0--|
            
Hard to play? Try these video lessons and learn fast. | Correct




comments powered by Disqus
↑ Back to top | Tablatures and chords are parodies/interpretations of the original songs. You may use it for private study, scholarship, research or language learning purposes only