>
 >
Tears In The Rain

Tears In The Rain Guitar Tabs

Joe Satriani - Tears In The Rain chords, tabs, tablatures, lyrics

Guitar lessons | Add/correct | Request | Top 50 tabs Artists:  A B C D E F G H I J K L M N O P Q R S T U V W X Y Z 0-9

Tears In The Rain Guitar Tabs – Joe Satriani

CD, Sheet music, Poster

Do you like Tears In The Rain? Share with your friends now
Bass TabsBass Tabs v2TabsTabs v2Tabs v3
this is a wicked song based on the scene in Blade Runner
where the bloke sits on the roof talking about all the
stuff he's done. Before that it was called 
Study In A Harmonic Minor #26
this is in 6/8. every note is an 8th note

-------0-----|-------0-----|-------0-----|-------0-----|----------------------
-----3---3---|-----3---3---|-----6---6---|-----3---3---|----------------------
---5-------5-|---4-------4-|---7-------7-|---5-------5-|-x2-------------------
-7-----------|-3-----------|-6-----------|-7-----------|----------------------
-------------|-------------|-------------|-------------|----------------------
-------------|-------------|-------------|-------------|----------------------
                                                                              

-------8-----|-------5-----|----|-------------|----|-------------|------------
-----6---6---|-----5---5---|----|-------5-----|----|-------5-----|------5-----
---9-------9-|---5-------5-|----|-----5---5---|----|-----7---7---|----7--7----
-7-----------|-7-----------|-x2-|---7-------7-|-x2-|---6-------6-|---6-----6--
-------------|-------------|----|-8-----------|----|-8-----------|-8----------
-------------|-------------|----|-------------|----|-------------|------------
                                                                      rit     

-------------|-------------|-------------|-------|----------------------------
-------5-----|-------5-----|-------------|-------|----------------------------
-----5---5---|-----7---7---|-------------|-------|----------------------------
---7-------7-|---6-------6-|-------------|-------|----------------------------
-7-----------|-7-----------|-0-2-3-----2-|-0-----|----------------------------
-------------|-------------|-------0-4---|-------|----------------------------
                                                                              

-------0-----|-------0-----|-------0-----|-------0-----|----------------------
-----3---3---|-----3---3---|-----6---6---|-----3---3---|----------------------
---5-------5-|---4-------4-|---7-------7-|---5-------5-|----------------------
-------------|-3-----------|-6-----------|-7-----------|-x2-------------------
-0-----------|-------------|-------------|-------------|----------------------
-------------|-------------|-------------|-------------|----------------------
                                                                              

-------8-----|-----|--------7------|-----|-------------|--------------|-------
-----6---6---|-----|-----10---10---|-----|-------5-----|-------5------|-------
---9-------9-|-----|---9---------9-|-----|-----7---7---|-----7---7----|-------
-0-----------|-x2--|---------------|-x2--|---7-------7-|---6-------6--|-------
-------------|-----|---------------|-----|-------------|--------------|-------
-------------|-----|-8-------------|-----|-7-----------|-0------------|-------
                                                                              

-------------|-------------|-------8-----|-----|--------7------|--------------
-------6-----|-------5-----|-----6---6---|-----|-----10---10---|--------------
-----7---7---|-----5---5---|---9-------9-|-----|---9---------9-|--------------
---7-------7-|---7-------7-|-0-----------|-x2--|---------------|-x2-----------
-0-----------|-0-----------|-------------|-----|---------------|--------------
-------------|-------------|-------------|-----|-8-------------|--------------
                                                                              

----------------|-------------|------------|------------|------------|--------
----------12----|-------9-----|-------6----|-------3----|-------3----|--------
-------10----10-|-----7---7---|-----4---4--|-----1---1--|-----4---4--|--------
----12----------|---9---------|---6--------|---3--------|---3--------|--------
-11-------------|-8-----------|-5----------|-2----------|------------|--------
----------------|-------------|------------|------------|-4----------|--------
                                                                              

--------------|--------------|--------------|--------------|--------------|---
-------0------|-------1------|-------0------|--------------|-------5------|---
-----1---1----|-----2---2----|-----1---1----|-------5------|-----5---5----|---
---0-------0--|---2-------2--|---2-------2--|-----7---7----|---7-------7--|---
--------------|--------------|--------------|---7-------7--|-7------------|---
-1------------|-0------------|-0------------|-5------------|--------------|---
                                                                              

-------5-7--|-8--|----|-------------------------------------------------------
-----5------|----|----|-------------------------------------------------------
---5-----7--|-9--|----|-------------------------------------------------------
-7----------|----|----|-------------------------------------------------------
------------|----|-0--|-------------------------------------------------------
------------|----|----|-------------------------------------------------------





Comments


Popular Joe Satriani tabs & chords
Bass Bass Tabs
A Piece Of Liquid Tabs
Come On Baby Tabs
Day At The Beach 1 Tabs
Devils Slide 1 Tabs
Heartbeats Tabs
Sleep Walk 2 Tabs
Slow And Easy Tabs
You Saved My Life Tabs
Out Of The Sunrise Intro Ukulele


Song lyrics



↑ Back to top | Tablatures and chords are parodies/interpretations of the original songs. You may use it for private study, scholarship, research or language learning purposes only
© 2014 AZChords.com Contact us | Privacy policy | DMCA | Add/correct tabs | Request tabs | Top 50 tabs