» » »

Joel Turner And The Modern Day Poets, These Kids Tabs (ver.3)

Artists:  A B C D E F G H I J K L M N O P Q R S T U V W X Y Z # 

These Kids Tabs (ver.3)

Joel Turner And The Modern Day Poets Tabs
 Rating:
4.5/5 (8 votes)
These Kids lessons Tabs too difficult? Try these video lessons and learn fast
1
                Joel Turner and the Modern Day Poets - These Kids

I can't believe noone could get this song right. It's a cool tune, though playing it
over and over through the whole song is a bit boring. Nevertheless, it's pretty fun,
and is a nice debut from 'The Australian Idol beatbox dude.'

standard tuning
acoustic guitar for rhythm
solo with distortion

Intro
e-----------------------------------2------2-----0-------5----|
B---------3------3----------3-----3----3-----3------3---------|
G-------0----0------------0---0----------0-----0------0-------|
D-----4--------4--------4-------4-----------------------------|
A---3---------------3h5---------------------------------------|
E-----------------------------------0-------------------------|

Verse
e----------------------------------------------------------------------|
B---------3-----3---3-----3-----3---------3-----3---------3-------3----|
G-------0---0-----0-----0---0-----0-----0---0-----0-----0-------0------|
D-----4-------4-------4-------4-------4-------4-------4-------4--------|
A---3------------------------------------------------------------------|
E-----------------------------------0---------------0-------2----------|

Solo
e-------------------------------------------------------------|
B---8p7-8p7-8p7-8p7-8p7-8p7-8p7-8p7-8p7-8p7-8p7-8p7-8p7-8p7---|
G-------------------------------------------------------------|
D-------------------------------------------------------------|
A-------------------------------------------------------------|
E-------------------------------------------------------------|

e--------7-8p7~~~~--|
B---8h10------------|
G-------------------|
D-------------------|
A-------------------|
E-------------------|

e---15-14-12-14-12-14-15-14-12----------12h14p12----12---|
B------------------------------15-12-15----------15------|
G--------------------------------------------------------|
D--------------------------------------------------------|
A--------------------------------------------------------|
E--------------------------------------------------------|

e-------------------------------|
B---10h12p10-12p10-12--8h10p8---|
G-----------------------------9-|
D-------------------------------|
A-------------------------------|
E-------------------------------|

use modulation on the power chords from here on in
e-----------------10b12b12b12b12--b12r/-5/7-------|
B-------------------------------------------------|
G-------------------------------------------------|
D---2-------5---7---------------------------------|
A---2-------5---7---------------------------------|
E---0-------3---5---------------------------------|
                slowly return this 12^

e---7-7-7--7-7--7-7-7--7p5p0---------|
B------------------------------------|
G------------------------------------|
D------------------------------------|
A------------------------------------|
E------------------------------------|

etc. i cant be bothered with the rest of the solo, it starts to fade out here anyway. enjoy.
            
Submit corrections

comments powered by Disqus
↑ Back to top | Joel Turner And The Modern Day Poets Tabs for These Kids. Lyrics for acoustic guitar and electric guitar. 1 Tablatures and chords are parodies/interpretations of the original songs. You may use it for private study, scholarship, research or language learning purposes only