» » »

Joe Brooks, These Broken Hands Of Mine Tabs (ver.1)

Artists:  A B C D E F G H I J K L M N O P Q R S T U V W X Y Z # 

These Broken Hands Of Mine Tabs (ver.1)

Joe Brooks Tabs
 Rating:
4.3/5 (6 votes)
These Broken Hands Of Mine lessons Tabs too difficult? Try these video lessons and learn fast
1
                Joe Brooks - These Broken Hands Of Mine (© asn.Debbie)

Standard Tuning + Capo on 7

*Note:* All chords relative to the capo.

Chords used: G    : 320033
             Em7  : 022033  
             Cadd9: x32033  
             D/F# : 200233

[Intro]

   G               Em7             Cadd9           D/F#      
e|-----------------------------------------------------------------|
B|-----------------------------------------------------------------|
G|---0---0---0---0---0---0---0---0---0---0---0---0---2---2---2---2-|
D|---0---0---0---0---2---2---2---2---2---2---2---2---0---0---0---0-|
A|---------------------------------3---3---3---3-------------------|
E|-3---3---3---3---0---0---0---0-------------------2---2---2---2---|

[Verse 1] 

   G               Em7             Cadd9           D/F#      
e|-----------------------------------------------------------------|
B|-----------------------------------------------------------------|
G|---0---0---0---0---0---0---0---0---0---0---0---0---2---2---2---2-|
D|---0---0---0---0---2---2---2---2---2---2---2---2---0---0---0---0-|
A|---------------------------------3---3---3---3-------------------|
E|-3---3---3---3---0---0---0---0-------------------2---2---2---2---|
          Take a breath, I close my eyes. I am lost, but try to find

   G               Em7             Cadd9           D/F#      
e|-----------------------------------------------------------------|
B|-----------------------------------------------------------------|
G|---0---0---0---0---0---0---0---0---0---0---0---0---2---2---2---2-|
D|---0---0---0---0---2---2---2---2---2---2---2---2---0---0---0---0-|
A|---------------------------------3---3---3---3-------------------|
E|-3---3---3---3---0---0---0---0-------------------2---2---2---2---|
          What it is,  in this life. That gives me strength enough to

   G               Em7             Cadd9           D/F#      
e|-----------------------------------------------------------------|
B|-----------------------------------------------------------------|
G|---0---0---0---0---0---0---0---0---0---0---0---0---2---2---2---2-|
D|---0---0---0---0---2---2---2---2---2---2---2---2---0---0---0---0-|
A|---------------------------------3---3---3---3-------------------|
E|-3---3---3---3---0---0---0---0-------------------2---2---2---2---|
      fight for something more .. 

[Prechorus 1]

*strum once*

         Em7
Well God knows my feet are aching
             Cadd9
And I’ve got mountains ahead to climb…

~[Chorus]~

One way at a 

   G                 D/F#          Em7             Cadd9               
e|-------------------------------------------------------------------|
B|-------------------------------------------------------------------|
G|---0---0---0---0---2---2---2---2---0---0---0---0---0---0---0---0---|
D|---0---0---0---0---0---0---0---0---2---2---2---2---2---2---2---2---|
A|-------------------------------------------------3---3---3---3-----|
E|-3---3---3---3---2---2---2---2---0---0---0---0---------------------|       
   time,    I'll try           to lend       these broken hands of 

   G                 D/F#          Em7             Cadd9               
e|-------------------------------------------------------------------|
B|-------------------------------------------------------------------|
G|---0---0---0---0---2---2---2---2---0---0---0---0---0---0---0---0---|
D|---0---0---0---0---0---0---0---0---2---2---2---2---2---2---2---2---|
A|-------------------------------------------------3---3---3---3-----|
E|-3---3---3---3---2---2---2---2---0---0---0---0---------------------| 
  mine. Give me strength,      be my light,    One way at a 

   G                 D/F#          Em7             Cadd9               
e|-------------------------------------------------------------------|
B|-------------------------------------------------------------------|
G|---0---0---0---0---2---2---2---2---0---0---0---0---0---0---0---0---|
D|---0---0---0---0---0---0---0---0---2---2---2---2---2---2---2---2---|
A|-------------------------------------------------3---3---3---3-----|
E|-3---3---3---3---2---2---2---2---0---0---0---0---------------------| 
time       These walls     will fall            and fill our empty 

   G                 D/F#          Em7             Cadd9               
e|-------------------------------------------------------------------|
B|-------------------------------------------------------------------|
G|---0---0---0---0---2---2---2---2---0---0---0---0---0---0---0---0---|
D|---0---0---0---0---0---0---0---0---2---2---2---2---2---2---2---2---|
A|-------------------------------------------------3---3---3---3-----|
E|-3---3---3---3---2---2---2---2---0---0---0---0---------------------| 
   souls   Give me strength, help me guide       These broken hands of mine

   G               Em7             Cadd9           D/F#      
e|-----------------------------------------------------------------|
B|-----------------------------------------------------------------|
G|---0---0---0---0---0---0---0---0---0---0---0---0---2---2---2---2-|
D|---0---0---0---0---2---2---2---2---2---2---2---2---0---0---0---0-|
A|---------------------------------3---3---3---3-------------------|
E|-3---3---3---3---0---0---0---0-------------------2---2---2---2---|

[Verse 2]

   G               Em7             Cadd9           D/F#      
e|-----------------------------------------------------------------|
B|-----------------------------------------------------------------|
G|---0---0---0---0---0---0---0---0---0---0---0---0---2---2---2---2-|
D|---0---0---0---0---2---2---2---2---2---2---2---2---0---0---0---0-|
A|---------------------------------3---3---3---3-------------------|
E|-3---3---3---3---0---0---0---0-------------------2---2---2---2---|
      The sky is grey it clouds your world. Clear the air child, break the 

   G               Em7             Cadd9           D/F#      
e|-----------------------------------------------------------------|
B|-----------------------------------------------------------------|
G|---0---0---0---0---0---0---0---0---0---0---0---0---2---2---2---2-|
D|---0---0---0---0---2---2---2---2---2---2---2---2---0---0---0---0-|
A|---------------------------------3---3---3---3-------------------|
E|-3---3---3---3---0---0---0---0-------------------2---2---2---2---|
  mold.  Find a place,     in your heart   To build a shelter from this 

   G               Em7             Cadd9           D/F#      
e|-----------------------------------------------------------------|
B|-----------------------------------------------------------------|
G|---0---0---0---0---0---0---0---0---0---0---0---0---2---2---2---2-|
D|---0---0---0---0---2---2---2---2---2---2---2---2---0---0---0---0-|
A|---------------------------------3---3---3---3-------------------|
E|-3---3---3---3---0---0---0---0-------------------2---2---2---2---|
   cold   and     winding        road ..

[Prechorus 2]

*strum once*

         Em7
Well God knows you’re barely standing
               Cadd9
But you’ve got to carry this heavy load…

~[Chorus]~

[Bridge]
                G 
What if there’s more?
                Em7
What if there’s more?
                Cadd9
What if there’s more than this?
     D/F#                   G    Em7   Cadd9   D/F# 
What if there’s more out there?
            
Submit corrections

comments powered by Disqus
↑ Back to top | Joe Brooks Tabs for These Broken Hands Of Mine. Lyrics for acoustic guitar and electric guitar. 1 Tablatures and chords are parodies/interpretations of the original songs. You may use it for private study, scholarship, research or language learning purposes only