» » »

Superman Tabs (ver.1)

Artists:  A B C D E F G H I J K L M N O P Q R S T U V W X Y Z # 

Superman Tabs (ver.1)

Joe Brooks
Rating:
4/5 (8 votes)

Hard to play? Try these video lessons and learn fast.
                -------------------------------------------------------------------------------
-------------------------------------------------------------------------------

Tuning: EADGBe

CAPO ON 10th FRET



          Intro / Verse throughout song / Chorus 

e|------3--3--x-x----3-x----------3--3----(3)--------------------------------|
B|------3--3--x-x----3-x----------3--3----(3)--------------------------------|
G|------0--0--x-x----0-x----------0--0----(0)--------------------------------|
D|------0--0--x-x----0-x----------0--0----(0)--------------------------------|
A|----------------------------------------3--3p2p0---------------------------|
E|--3-3------------2--------1--1---------------------------------------------|



          Prechorus

e|---3-3-3-3-----------------------------------------------------------------|
B|---3-3-3-3-----------------------------------------------------------------|
G|---0-0-0-0------lots of times with a few little twidley bits in there------|
D|---2-2-2-2-----------------------------------------------------------------|
A|---3-3-3-3-----------------------------------------------------------------|
E|---------------------------------------------------------------------------|
       So while I disappear when you come near......




          End Of Chorus

e|------3--3--x-x----3-x----------3--3---------------------------------------|
B|------3--3--x-x----3-x----------3--3-----0---------------------------------|
G|------0--0--x-x----0-x----------0--0-----0---------------------------------|
D|------0--0--x-x----0-x----------0--0-----2---------------------------------|
A|-----------------------------------------2---------------------------------|
E|--3-3------------2--------1--1-----------0---------------------------------|
        But I can only write this song and tell you that Im not that strong....

                     Let ring- - - - -        
e|-----0-----------3---------------------------------------------------------|
B|-----1-----------4---------------------------------------------------------|
G|-----2-----------5---------------------------On 'am' you come back in------|
D|-----2-----------5-------------------------with the verse/intro/chorus-----|
A|-----0-----------3-----------------------------------chords----------------|
E|---------------------------------------------------------------------------|
       Cos  Im  no   superman                  I hope you like me as I am





          Woooahh Bit (after second chorus)

e|----3------------------------------------------------3---------------------|
B|----4-------3------3-----------------------0---------3---------------------|
G|----5--x8---4------4-------repeat then ->--0---------0--x6-----------------|
D|----5-------5--x4--5--x4----(3 times)------2--x8-----0---------------------|
A|----3-------5------5-----------------------2---------3---------------------|
E|------------3------2-----------------------0-------------------------------|




Enjoy :D
And Just leave comments if you have any corrections


| /  slide up
| \  slide down
| h  hammer-on
| p  pull-off
| ~  vibrato
| +  harmonic
| x  Mute note
===============================================================================
            
Hard to play? Try these video lessons and learn fast. | Correct




comments powered by Disqus
↑ Back to top | Tablatures and chords are parodies/interpretations of the original songs. You may use it for private study, scholarship, research or language learning purposes only