» » »

You Upset Me Baby Bass tabs (ver.1)

Artists:  A B C D E F G H I J K L M N O P Q R S T U V W X Y Z # 

You Upset Me Baby Bass tabs (ver.1)

Joe Bonamassa
Rating:
0/5 (0 votes)

Hard to play? Try these video lessons and learn fast.
                		Joe Bonamassa - You Upset Me Baby

Tuning:		Standard

G|---------------------------------------------------------------------------|
D|---------------------------------------------------------------------------|
A|---------------------------------------------------------------------------|
E|----5--0--3--5----5--0--3--5----5--0--3--5----5--0--3--5-------------------|

G|---------------------------------------------------------------------------|
D|---------------------------------------------------------------------------|
A|----5--0--3--5------5--0--3--5---------------------------------------------|
E|----------------------------------5--0--3--5----5--0--3--5-----------------|

G|---------------------------------------------------------------------------|
D|---------------------------------------------------------------------------|
A|----7--0--7--6----5--0--3--5-----------------------------------------------|
E|--------------------------------5--0--3--5----0--0--0--0-------------------|

This is a real easy 12 bar blues riff, the timing is really easy to hear and i think 
sounds perfect!!
            
Hard to play? Try these video lessons and learn fast. | Correct




comments powered by Disqus
↑ Back to top | Tablatures and chords are parodies/interpretations of the original songs. You may use it for private study, scholarship, research or language learning purposes only