» » »

Driving Towards The Daylight Tabs (ver.2)

Artists:  A B C D E F G H I J K L M N O P Q R S T U V W X Y Z # 

Driving Towards The Daylight Tabs (ver.2)

Joe Bonamassa
Rating:
0/5 (0 votes)

Tabs too difficult? Try these video lessons and learn fast.
                I've only worked out the chorus part and the rhythm part of the breakdown, I will post 
the rest when I figure it out, the verse guitar is turned down and is harder to determine.

Tuned 1 Half Step Down

So as the drums kick in it goes like this...

e|----------------------------------------------------|
B|----------------------------------------------------|
G|----9s11--11----2--2--2--2--9--9--9--9--7--7--7--7--|
D|----9s11--11----2--2--2--2--9--9--9--9--7--7--7--7--| x2
A|----7s9---9-----0--0--0--0--7--7--7--7--5--5--5--5--|
E|----0-----------------------------------------------|

Then the breakdown lower section goes like this...

e|--------------------------------------|
B|--------------------------------------|
G|-----------------2-----------------4--|
D|------------4----2------------4----4--|
A|--------2s5------0--------2s5------2--|
E|----2-5---------------2-5-------------|

Pretty sure its correct, thanks
            
Tabs too difficult? Try these video lessons and learn fast.


comments powered by Disqus
↑ Back to top | Tablatures and chords are parodies/interpretations of the original songs. You may use it for private study, scholarship, research or language learning purposes only