>
 >
Suspended By The Throat

Suspended By The Throat Bass Tabs

Job For A Cowboy - Suspended By The Throat chords, tabs, tablatures, lyrics

Guitar lessons | Add/correct | Request | Top 50 tabs Artists:  A B C D E F G H I J K L M N O P Q R S T U V W X Y Z 0-9

Suspended By The Throat Bass Tabs – Job For A Cowboy

CD, Sheet music, Poster

Do you like Suspended By The Throat? Share with your friends now
Bass TabsBass Tabs v2Bass Tabs v3Bass Tabs v4TabsTabs v2Tabs v3


Tuning: Drop C  (CGCF)

(two times)
F|-------------------------------------------------|
C|------------3h4----7b----------------------------|
G|---5-7-8--------5-------5-7-8--------------------|
C|-0--------0-----------0-------5-7-8-7-5-6-3-5-2--|

(one time)
F|------------------------------------|
C|------------------------------------|
G|------------------------333----333--|
C|-0---------0---------222----222-----|

(two times)
F|-----------------------------------|
C|-----------------------------------|
G|----------------------333---333----|
C|-0-0-0-0-0-0-0-0-0-222---222-------|

(one time)
F|-----------------------------------|
C|-----------------------------------|
G|------------------------333---333--|
C|-0~--------0~--------222---222-----|

(four times)
F|-----------------------------------|
C|-----------------------------------|
G|----------------------333---333----|
C|-0-0-0-0-0-0-0-0-0-222---222-------|

(four times)
F|----------------------------------------|
C|----------------------------------------|
G|----------------------------------------|
C|-333333333-6666-5555-22222222--320-320--|

(two times)
F|-------------------------|
C|-------------------------|
G|-------------------------|
C|-3~/1\3~-6~--5~--2~brbr--|

(one time)
F|-----------------------------------------|
C|-----------------------------------------|
G|-------------------------------333--333--|
C|-00-000-00-0-00000---00000--222---222----|

(four times)
F|----------------------------------------------|
C|----------------------------------------------|
G|---------------------------------333---333----|
C|-00000-----00-000-00-0-00000--222---222-------|

(four times)
F|--------------------------------------------------------------------------|
C|--------------------------------------------------------------------------|
G|----0h5h7-4h5-5h7------0h5h7-4h5-5h7-------0h5h7-4h5-5h7-8h10-7h8-5h7-4b--|
C|-000---------------000----------------000---------------------------------|

(one time)
F|------------------------------------------------|
C|---------------------------------7b-------------|
G|---------------------------------------5h7p5----|
C|-0000-----0000-----0000----0000-----00----------|

(two times)
F|-------------------------------------------------------------------------------|
C|--------------------------------------------------------------7b---------------|
G|-----0h5h8-4h7-1h4------0h5h8-4h7-1h4------0h5h8-4h7-1h4--------------4h5p4----|
C|-000----------------000----------------000----------------000----000-----------|

(one time)
F|---------------------------------------------------------------------------------------------|
C|-------------------------------------------------------------7b---------------5b-------------|
G|-----0h5h8-4h7-1h4-----0h5h8-4h7-1h4------0h5h8-4h7-1h4-------------4h5p4---------4h5p4------|
C|-000---------------000----------------000----------------000----000-------000-------------0--|


F|-----------------------------------------------------------------|
C|-----------------------------------------------------------7b----|
G|-----------5p0-8p0-7p0-10p0-8p0-7p0------------------------------|
C|-000000000--------------------------000000000000000000-----------|

F|---------------------------------------------------------------|
C|-------------------------------------------------7b-----7b-----|
G|-----------5p0-8p0-7p0-10p0-8p0-7p0----------5h7----5h7--------|
C|-000000000--------------------------00000000-------------------|

F|-------------------------------------------------------------------|
C|------------------------------------------------------------7b-----|
G|-----------5p0-8p0-7p0-10p0-8p0-7p0--------------------------------|
C|-000000000--------------------------000000000000000000-------------|

F|---------------------------------------------------------------|
C|-------------------------------------------------7b-----7b-----|
G|-----------5p0-8p0-7p0-10p0-8p0-7p0----------5h7----5h7--------|
C|-000000000--------------------------00000000-------------------|

(one time)
F|-----------------------------------------------------|
C|-----------------------------------------------------|
G|-------7-5-7-8---------10-8-10-11----------7-5-7-8---|
C|-00-00----------00-00--------------00-00-------------|

(one time)
F|---------------------|
C|---------------------|
G|-----101010-----888--|
C|-888--------777------|

(one time)
F|------------------------------|
C|------------------------------|
G|------------------------------|
C|-0-0-000---0-0-000---0-0-000--|

(four times)
F|---------------------|
C|---------------------|
G|-----101010-----888--|
C|-888--------777------|

(one time)
F|-------------------------------------------------------------------------------|
C|-------------------------------------------------------------------------------|
G|-0~----------------------------------------------------------------------------|
C|-0~----------------------------------------------------------------------------|

(six times)
F|-----------------------------------------------------------------------------------|
C|-----------------------------------------------------------------------------------|
G|-------------10-8-6----------------------------------------------------------------|
C|-0~--6~--8~------------------------------------------------------------------------|

F|-------------------------------------------------------------------------------|
C|-------------------------------------------------------------------------------|
G|-0~----------------------------------------------------------------------------|
C|-0~----------------------------------------------------------------------------|


| /  slide up
| \  slide down
| b bend
| br bend and release
| h  hammer-on
| p  pull-off
| ~  vibrato
| +  harmonic
| x  Mute note





Comments


Popular Job For A Cowboy tabs & chords
Relinquished Bass Tabs
Rising Tide Bass Tabs
Bearing The Serpent's Lamb 2 Tabs
Embedded Tabs
Embedded 1 Tabs
Knee Deep Tabs
The Rising Tide 1 Tabs
The Rising Tide 2 Tabs
What We Once Called Home Tabs
What We Once Called Home 1 Tabs


Song lyrics



↑ Back to top | Tablatures and chords are parodies/interpretations of the original songs. You may use it for private study, scholarship, research or language learning purposes only
© 2014 AZChords.com Contact us | Privacy policy | DMCA | Add/correct tabs | Request tabs | Top 50 tabs