» » »

Joan Baez, It Aint Me Babe Tabs (ver.1)

Artists:  A B C D E F G H I J K L M N O P Q R S T U V W X Y Z # 

It Aint Me Babe Tabs (ver.1)

Joan Baez Tabs
 Rating:
4/5 (4 votes)
It Aint Me Babe lessons Tabs too difficult? Try these video lessons and learn fast
                "It Ain't Me Babe"
JOAN BAEZ


She plays with a capo on 1st fret I think. Making the song in the key
of G#Major.

    I       iii     ii      IV      V
    GM      Bm      Am      CM      DM
e/--3-------2-------0-------0-------2---| finger
b/--0-------3-------1-------1-------3---| finger
g/--0-------4-------2-------0-------2---| thumb on DM only!! otherwise finger
d/--0-------4-------2-------2-------0---| thumb
a/--2-------2-------0-------3-----------| thumb
e/--3-----------------------------------| thumb


Intro

GM
e/---------------3------------------------------------------------3--|
b/-----0------------------0-----------0h1---0h1--0-----0-------------|
g/-----0-----0--------0---------0----------------------0-----0-------|
d/-----0-------0--------0---------0~~-----0------0-----0-------0-----|
a/-------------------------------------------------------------------|
e/--3-----3---------3--------3--------3-------3-----3-----3----------|

Verse

Bm                                     Am
e/---------------2-------------------|--------------0-----------------|
b/-----3-------------------3---------|-----1----------------1---------|
g/-----4-----4---------4--------4----|-----2----2-------2--------2----| 
d/-----4-------4---------4--------4--|-----2------2-------2--------2--|
a/--2-----2---------2---------2------|--0-----0-------0--------0------|
e/-----------------------------------|--------------------------------|
   "Go away from my                    window...."
   "I'm not the one you                want babe..."



Bm                    Am
e/-----------------------------------|---------------3-------------------|
b/-----3-----------------1-----------|-----0-------------------0---------|
g/-----4-----4-----------2----2------|-----0----0----------0--------0----|
d/-----4-------4~--------2------2~---|-----0------0----------0--------0--|
a/--2-----2-----------0-----0--------|-----------------------------------|
e/-----------------------------------|--3-----3---------3---------3------|
   "Leave at your     own chosen        speed..."
   "I'm not           the one you       need..."


Bm                                     Am
e/---------------2-------------------|--------------0-----------------|
b/-----3-------------------3---------|-----1----------------1---------|
g/-----4-----4---------4--------4----|-----2----2-------2--------2----| 
d/-----4-------4---------4--------4--|-----2------2-------2--------2--|
a/--2-----2---------2---------2------|--0-----0-------0--------0------|
e/-----------------------------------|--------------------------------|
   "you say you're looking             for someone"
   "someone blah blah                  blah blah blah"



Bm                                     Am
e/---------------2-------------------|--------------0-----------------|
b/-----3-------------------3---------|-----1----------------1---------|
g/-----4-----4---------4--------4----|-----2----2-------2--------2----| 
d/-----4-------4---------4--------4--|-----2------2-------2--------2--|
a/--2-----2---------2---------2------|--0-----0-------0--------0------|
e/-----------------------------------|--------------------------------|
   "who's weak, but always              strong"
   "whether you're right or             wrong"



CM                                     DM
e/--------------0-------------------|-----2---------2--------2---------|
b/-----1-----------------1----------|-----3-----3--------3--------3----|
g/-----0----0--------0--------0-----|-----2-------2--------2--------2--|
d/-----2------2--------2--------2~--|--0-----0---------0-------0-------|
a/--3-----3--------3--------3-------|----------------------------------|
e/----------------------------------|----------------------------------|
 "someone to open each and every      Door..."


Chorus

  GM                                 CM
e/---------------------------------|---------------------------------|
b/-----0---------0--------0--------|-----1--------1--------1---------|
g/-----0-----0--------0------------|-----0----0--------0--------0----|
d/-----0-------0--------0----------|-----2------2--------2--------2--|
a/---------------------------0--2--|--3-----3--------3--------3------|
e/--3-----3---------3--------------|---------------------------------|
  "It ain't me babe                     no no no.."



  GM                                 CM               DM
e/---------------------------------|---------------------2---------2--|
b/-----0---------0--------0--------|-----1--------1------3----3-------|
g/-----0-----0--------0------------|-----0----0----------2-------2----|
d/-----0-------0--------0----------|-----2------2-----0-----0---------|
a/---------------------------0--2--|--3-----3-------------------------|
e/--3-----3---------3--------------|----------------------------------|
  "It ain't me babe           it ain't me you're looking for babe"



Just repeat however many times.

Enjoy!
            
Submit corrections

comments powered by Disqus
↑ Back to top | Joan Baez Tabs for It Aint Me Babe. Lyrics for acoustic guitar and electric guitar. Tablatures and chords are parodies/interpretations of the original songs. You may use it for private study, scholarship, research or language learning purposes only